  0
SECTION
  2
HEADER
  9
$ACADVER
  1
AC1018
  9
$ACADMAINTVER
 70
     0
  9
$DWGCODEPAGE
  3
ANSI_932
  9
$INSBASE
 10
0.0
 20
0.0
 30
0.0
  9
$EXTMIN
 10
1.000000000000000E+20
 20
1.000000000000000E+20
 30
1.000000000000000E+20
  9
$EXTMAX
 10
-1.000000000000000E+20
 20
-1.000000000000000E+20
 30
-1.000000000000000E+20
  9
$LIMMIN
 10
0.0
 20
0.0
  9
$LIMMAX
 10
12.0
 20
9.0
  9
$ORTHOMODE
 70
     0
  9
$REGENMODE
 70
     1
  9
$FILLMODE
 70
     1
  9
$QTEXTMODE
 70
     0
  9
$MIRRTEXT
 70
     1
  9
$LTSCALE
 40
1.0
  9
$ATTMODE
 70
     1
  9
$TEXTSIZE
 40
0.2
  9
$TRACEWID
 40
0.05
  9
$TEXTSTYLE
  7
Standard
  9
$CLAYER
  8
0
  9
$CELTYPE
  6
ByLayer
  9
$CECOLOR
 62
   256
  9
$CELTSCALE
 40
1.0
  9
$DISPSILH
 70
     0
  9
$DIMSCALE
 40
1.0
  9
$DIMASZ
 40
0.18
  9
$DIMEXO
 40
0.0625
  9
$DIMDLI
 40
0.38
  9
$DIMRND
 40
0.0
  9
$DIMDLE
 40
0.0
  9
$DIMEXE
 40
0.18
  9
$DIMTP
 40
0.0
  9
$DIMTM
 40
0.0
  9
$DIMTXT
 40
0.18
  9
$DIMCEN
 40
0.09
  9
$DIMTSZ
 40
0.0
  9
$DIMTOL
 70
     0
  9
$DIMLIM
 70
     0
  9
$DIMTIH
 70
     1
  9
$DIMTOH
 70
     1
  9
$DIMSE1
 70
     0
  9
$DIMSE2
 70
     0
  9
$DIMTAD
 70
     0
  9
$DIMZIN
 70
     0
  9
$DIMBLK
  1

  9
$DIMASO
 70
     1
  9
$DIMSHO
 70
     1
  9
$DIMPOST
  1

  9
$DIMAPOST
  1

  9
$DIMALT
 70
     0
  9
$DIMALTD
 70
     2
  9
$DIMALTF
 40
25.4
  9
$DIMLFAC
 40
1.0
  9
$DIMTOFL
 70
     0
  9
$DIMTVP
 40
0.0
  9
$DIMTIX
 70
     0
  9
$DIMSOXD
 70
     0
  9
$DIMSAH
 70
     0
  9
$DIMBLK1
  1

  9
$DIMBLK2
  1

  9
$DIMSTYLE
  2
Standard
  9
$DIMCLRD
 70
     0
  9
$DIMCLRE
 70
     0
  9
$DIMCLRT
 70
     0
  9
$DIMTFAC
 40
1.0
  9
$DIMGAP
 40
0.09
  9
$DIMJUST
 70
     0
  9
$DIMSD1
 70
     0
  9
$DIMSD2
 70
     0
  9
$DIMTOLJ
 70
     1
  9
$DIMTZIN
 70
     0
  9
$DIMALTZ
 70
     0
  9
$DIMALTTZ
 70
     0
  9
$DIMUPT
 70
     0
  9
$DIMDEC
 70
     4
  9
$DIMTDEC
 70
     4
  9
$DIMALTU
 70
     2
  9
$DIMALTTD
 70
     2
  9
$DIMTXSTY
  7
Standard
  9
$DIMAUNIT
 70
     0
  9
$DIMADEC
 70
     0
  9
$DIMALTRND
 40
0.0
  9
$DIMAZIN
 70
     0
  9
$DIMDSEP
 70
    46
  9
$DIMATFIT
 70
     3
  9
$DIMFRAC
 70
     0
  9
$DIMLDRBLK
  1

  9
$DIMLUNIT
 70
     2
  9
$DIMLWD
 70
    -2
  9
$DIMLWE
 70
    -2
  9
$DIMTMOVE
 70
     0
  9
$LUNITS
 70
     2
  9
$LUPREC
 70
     4
  9
$SKETCHINC
 40
0.1
  9
$FILLETRAD
 40
0.5
  9
$AUNITS
 70
     0
  9
$AUPREC
 70
     0
  9
$MENU
  1
.
  9
$ELEVATION
 40
0.0
  9
$PELEVATION
 40
0.0
  9
$THICKNESS
 40
0.0
  9
$LIMCHECK
 70
     0
  9
$CHAMFERA
 40
0.5
  9
$CHAMFERB
 40
0.5
  9
$CHAMFERC
 40
1.0
  9
$CHAMFERD
 40
0.0
  9
$SKPOLY
 70
     0
  9
$TDCREATE
 40
2457548.625289352
  9
$TDUCREATE
 40
2457548.583622685
  9
$TDUPDATE
 40
2457548.625289363
  9
$TDUUPDATE
 40
2457548.583622697
  9
$TDINDWG
 40
0.0000000116
  9
$TDUSRTIMER
 40
0.0000000116
  9
$USRTIMER
 70
     1
  9
$ANGBASE
 50
0.0
  9
$ANGDIR
 70
     0
  9
$PDMODE
 70
     0
  9
$PDSIZE
 40
0.0
  9
$PLINEWID
 40
0.0
  9
$SPLFRAME
 70
     0
  9
$SPLINETYPE
 70
     6
  9
$SPLINESEGS
 70
     8
  9
$HANDSEED
  5
44F
  9
$SURFTAB1
 70
     6
  9
$SURFTAB2
 70
     6
  9
$SURFTYPE
 70
     6
  9
$SURFU
 70
     6
  9
$SURFV
 70
     6
  9
$UCSBASE
  2

  9
$UCSNAME
  2

  9
$UCSORG
 10
0.0
 20
0.0
 30
0.0
  9
$UCSXDIR
 10
1.0
 20
0.0
 30
0.0
  9
$UCSYDIR
 10
0.0
 20
1.0
 30
0.0
  9
$UCSORTHOREF
  2

  9
$UCSORTHOVIEW
 70
     0
  9
$UCSORGTOP
 10
0.0
 20
0.0
 30
0.0
  9
$UCSORGBOTTOM
 10
0.0
 20
0.0
 30
0.0
  9
$UCSORGLEFT
 10
0.0
 20
0.0
 30
0.0
  9
$UCSORGRIGHT
 10
0.0
 20
0.0
 30
0.0
  9
$UCSORGFRONT
 10
0.0
 20
0.0
 30
0.0
  9
$UCSORGBACK
 10
0.0
 20
0.0
 30
0.0
  9
$PUCSBASE
  2

  9
$PUCSNAME
  2

  9
$PUCSORG
 10
0.0
 20
0.0
 30
0.0
  9
$PUCSXDIR
 10
1.0
 20
0.0
 30
0.0
  9
$PUCSYDIR
 10
0.0
 20
1.0
 30
0.0
  9
$PUCSORTHOREF
  2

  9
$PUCSORTHOVIEW
 70
     0
  9
$PUCSORGTOP
 10
0.0
 20
0.0
 30
0.0
  9
$PUCSORGBOTTOM
 10
0.0
 20
0.0
 30
0.0
  9
$PUCSORGLEFT
 10
0.0
 20
0.0
 30
0.0
  9
$PUCSORGRIGHT
 10
0.0
 20
0.0
 30
0.0
  9
$PUCSORGFRONT
 10
0.0
 20
0.0
 30
0.0
  9
$PUCSORGBACK
 10
0.0
 20
0.0
 30
0.0
  9
$USERI1
 70
     0
  9
$USERI2
 70
     0
  9
$USERI3
 70
     0
  9
$USERI4
 70
     0
  9
$USERI5
 70
     0
  9
$USERR1
 40
0.0
  9
$USERR2
 40
0.0
  9
$USERR3
 40
0.0
  9
$USERR4
 40
0.0
  9
$USERR5
 40
0.0
  9
$WORLDVIEW
 70
     1
  9
$SHADEDGE
 70
     3
  9
$SHADEDIF
 70
    70
  9
$TILEMODE
 70
     1
  9
$MAXACTVP
 70
    64
  9
$PINSBASE
 10
0.0
 20
0.0
 30
0.0
  9
$PLIMCHECK
 70
     0
  9
$PEXTMIN
 10
1.000000000000000E+20
 20
1.000000000000000E+20
 30
1.000000000000000E+20
  9
$PEXTMAX
 10
-1.000000000000000E+20
 20
-1.000000000000000E+20
 30
-1.000000000000000E+20
  9
$PLIMMIN
 10
0.0
 20
0.0
  9
$PLIMMAX
 10
12.0
 20
9.0
  9
$UNITMODE
 70
     0
  9
$VISRETAIN
 70
     1
  9
$PLINEGEN
 70
     0
  9
$PSLTSCALE
 70
     1
  9
$TREEDEPTH
 70
  3020
  9
$CMLSTYLE
  2
Standard
  9
$CMLJUST
 70
     0
  9
$CMLSCALE
 40
1.0
  9
$PROXYGRAPHICS
 70
     1
  9
$MEASUREMENT
 70
     0
  9
$CELWEIGHT
370
    -1
  9
$ENDCAPS
280
     0
  9
$JOINSTYLE
280
     0
  9
$LWDISPLAY
290
     1
  9
$INSUNITS
 70
     1
  9
$HYPERLINKBASE
  1

  9
$STYLESHEET
  1

  9
$XEDIT
290
     1
  9
$CEPSNTYPE
380
     0
  9
$PSTYLEMODE
290
     1
  9
$FINGERPRINTGUID
  2
{5AF2E6B7-A37E-012A-4D64-F5D39AFE4BF8}
  9
$VERSIONGUID
  2
{FAEB1C32-E019-11D5-929B-00C0DF256EC4}
  9
$EXTNAMES
290
     1
  9
$PSVPSCALE
 40
0.0
  9
$OLESTARTUP
290
     0
  9
$SORTENTS
280
   127
  9
$INDEXCTL
280
     0
  9
$HIDETEXT
280
     1
  9
$XCLIPFRAME
290
     0
  9
$HALOGAP
280
     0
  9
$OBSCOLOR
 70
   257
  9
$OBSLTYPE
280
     0
  9
$INTERSECTIONDISPLAY
280
     0
  9
$INTERSECTIONCOLOR
 70
   257
  9
$DIMASSOC
280
     2
  9
$PROJECTNAME
  1

  0
ENDSEC
  0
SECTION
  2
CLASSES
  0
CLASS
  1
ACDBDICTIONARYWDFLT
  2
AcDbDictionaryWithDefault
  3
ObjectDBX Classes
 90
        0
 91
        3
280
     0
281
     0
  0
CLASS
  1
VISUALSTYLE
  2
AcDbVisualStyle
  3
ObjectDBX Classes
 90
     4095
 91
        3
280
     0
281
     0
  0
ENDSEC
  0
SECTION
  2
TABLES
  0
TABLE
  2
VPORT
  5
8
330
0
100
AcDbSymbolTable
 70
     1
  0
VPORT
  5
29
330
8
100
AcDbSymbolTableRecord
100
AcDbViewportTableRecord
  2
*Active
 70
     0
 10
0.0
 20
0.0
 11
1.0
 21
1.0
 12
0.0
 22
0.0
 13
0.0
 23
0.0
 14
0.5
 24
0.5
 15
0.5
 25
0.5
 16
0.0
 26
0.0
 36
1.0
 17
249.9997199824543
 27
-149.999384126764
 37
0.0
 40
299.9987682535281
 41
1.666671642939415
 42
50.0
 43
0.0
 44
0.0
 50
0.0
 51
0.0
 71
     0
 72
   100
 73
     1
 74
     3
 75
     0
 76
     0
 77
     0
 78
     0
281
     0
 65
     1
110
0.0
120
0.0
130
0.0
111
1.0
121
0.0
131
0.0
112
0.0
122
1.0
132
0.0
 79
     0
146
0.0
  0
ENDTAB
  0
TABLE
  2
LTYPE
  5
5
330
0
100
AcDbSymbolTable
 70
     1
  0
LTYPE
  5
14
330
5
100
AcDbSymbolTableRecord
100
AcDbLinetypeTableRecord
  2
ByBlock
 70
     0
  3

 72
    65
 73
     0
 40
0.0
  0
LTYPE
  5
15
330
5
100
AcDbSymbolTableRecord
100
AcDbLinetypeTableRecord
  2
ByLayer
 70
     0
  3

 72
    65
 73
     0
 40
0.0
  0
LTYPE
  5
16
330
5
100
AcDbSymbolTableRecord
100
AcDbLinetypeTableRecord
  2
Continuous
 70
     0
  3
Solid line
 72
    65
 73
     0
 40
0.0
  0
ENDTAB
  0
TABLE
  2
LAYER
  5
2
330
0
100
AcDbSymbolTable
 70
     2
  0
LAYER
  5
10
330
2
100
AcDbSymbolTableRecord
100
AcDbLayerTableRecord
  2
0
 70
     0
 62
     7
  6
Continuous
370
    -3
390
F
  0
LAYER
  5
3B
330
2
100
AcDbSymbolTableRecord
100
AcDbLayerTableRecord
  2
Calque 1
 70
     0
 62
     7
  6
Continuous
370
    -3
390
F
  0
ENDTAB
  0
TABLE
  2
STYLE
  5
3
330
0
100
AcDbSymbolTable
 70
     1
  0
STYLE
  5
11
330
3
100
AcDbSymbolTableRecord
100
AcDbTextStyleTableRecord
  2
Standard
 70
     0
 40
0.0
 41
1.0
 50
0.0
 71
     0
 42
0.2
  3
txt
  4

  0
ENDTAB
  0
TABLE
  2
VIEW
  5
6
330
0
100
AcDbSymbolTable
 70
     0
  0
ENDTAB
  0
TABLE
  2
UCS
  5
7
330
0
100
AcDbSymbolTable
 70
     0
  0
ENDTAB
  0
TABLE
  2
APPID
  5
9
330
0
100
AcDbSymbolTable
 70
     1
  0
APPID
  5
12
330
9
100
AcDbSymbolTableRecord
100
AcDbRegAppTableRecord
  2
ACAD
 70
     0
  0
ENDTAB
  0
TABLE
  2
DIMSTYLE
  5
A
330
0
100
AcDbSymbolTable
 70
     1
100
AcDbDimStyleTable
  0
DIMSTYLE
105
27
330
A
100
AcDbSymbolTableRecord
100
AcDbDimStyleTableRecord
  2
Standard
 70
     0
340
11
  0
ENDTAB
  0
TABLE
  2
BLOCK_RECORD
  5
1
330
0
100
AcDbSymbolTable
 70
    37
  0
BLOCK_RECORD
  5
1F
330
1
100
AcDbSymbolTableRecord
100
AcDbBlockTableRecord
  2
*Model_Space
340
22
  0
BLOCK_RECORD
  5
1B
330
1
100
AcDbSymbolTableRecord
100
AcDbBlockTableRecord
  2
*Paper_Space
340
1E
  0
BLOCK_RECORD
  5
23
330
1
100
AcDbSymbolTableRecord
100
AcDbBlockTableRecord
  2
*Paper_Space0
340
26
  0
BLOCK_RECORD
  5
2DE
330
1
100
AcDbSymbolTableRecord
100
AcDbBlockTableRecord
  2
block 2
340
0
102
{BLKREFS
331
2DF
102
}
  0
BLOCK_RECORD
  5
2E9
330
1
100
AcDbSymbolTableRecord
100
AcDbBlockTableRecord
  2
block 3
340
0
102
{BLKREFS
331
2EA
102
}
  0
BLOCK_RECORD
  5
2F2
330
1
100
AcDbSymbolTableRecord
100
AcDbBlockTableRecord
  2
block 4
340
0
102
{BLKREFS
331
2F3
102
}
  0
BLOCK_RECORD
  5
2FB
330
1
100
AcDbSymbolTableRecord
100
AcDbBlockTableRecord
  2
block 5
340
0
102
{BLKREFS
331
2FC
102
}
  0
BLOCK_RECORD
  5
30A
330
1
100
AcDbSymbolTableRecord
100
AcDbBlockTableRecord
  2
block 6
340
0
102
{BLKREFS
331
30B
102
}
  0
BLOCK_RECORD
  5
313
330
1
100
AcDbSymbolTableRecord
100
AcDbBlockTableRecord
  2
block 7
340
0
102
{BLKREFS
331
314
102
}
  0
BLOCK_RECORD
  5
31C
330
1
100
AcDbSymbolTableRecord
100
AcDbBlockTableRecord
  2
block 8
340
0
102
{BLKREFS
331
31D
102
}
  0
BLOCK_RECORD
  5
325
330
1
100
AcDbSymbolTableRecord
100
AcDbBlockTableRecord
  2
block 9
340
0
102
{BLKREFS
331
326
102
}
  0
BLOCK_RECORD
  5
329
330
1
100
AcDbSymbolTableRecord
100
AcDbBlockTableRecord
  2
block 10
340
0
102
{BLKREFS
331
32A
102
}
  0
BLOCK_RECORD
  5
336
330
1
100
AcDbSymbolTableRecord
100
AcDbBlockTableRecord
  2
block 11
340
0
102
{BLKREFS
331
337
102
}
  0
BLOCK_RECORD
  5
341
330
1
100
AcDbSymbolTableRecord
100
AcDbBlockTableRecord
  2
block 12
340
0
102
{BLKREFS
331
342
102
}
  0
BLOCK_RECORD
  5
34A
330
1
100
AcDbSymbolTableRecord
100
AcDbBlockTableRecord
  2
block 13
340
0
102
{BLKREFS
331
34B
102
}
  0
BLOCK_RECORD
  5
353
330
1
100
AcDbSymbolTableRecord
100
AcDbBlockTableRecord
  2
block 14
340
0
102
{BLKREFS
331
354
102
}
  0
BLOCK_RECORD
  5
362
330
1
100
AcDbSymbolTableRecord
100
AcDbBlockTableRecord
  2
block 15
340
0
102
{BLKREFS
331
363
102
}
  0
BLOCK_RECORD
  5
36B
330
1
100
AcDbSymbolTableRecord
100
AcDbBlockTableRecord
  2
block 16
340
0
102
{BLKREFS
331
36C
102
}
  0
BLOCK_RECORD
  5
374
330
1
100
AcDbSymbolTableRecord
100
AcDbBlockTableRecord
  2
block 17
340
0
102
{BLKREFS
331
375
102
}
  0
BLOCK_RECORD
  5
37D
330
1
100
AcDbSymbolTableRecord
100
AcDbBlockTableRecord
  2
block 18
340
0
102
{BLKREFS
331
37E
102
}
  0
BLOCK_RECORD
  5
381
330
1
100
AcDbSymbolTableRecord
100
AcDbBlockTableRecord
  2
block 19
340
0
102
{BLKREFS
331
382
102
}
  0
BLOCK_RECORD
  5
38E
330
1
100
AcDbSymbolTableRecord
100
AcDbBlockTableRecord
  2
block 20
340
0
102
{BLKREFS
331
38F
102
}
  0
BLOCK_RECORD
  5
399
330
1
100
AcDbSymbolTableRecord
100
AcDbBlockTableRecord
  2
block 21
340
0
102
{BLKREFS
331
39A
102
}
  0
BLOCK_RECORD
  5
3A2
330
1
100
AcDbSymbolTableRecord
100
AcDbBlockTableRecord
  2
block 22
340
0
102
{BLKREFS
331
3A3
102
}
  0
BLOCK_RECORD
  5
3AB
330
1
100
AcDbSymbolTableRecord
100
AcDbBlockTableRecord
  2
block 23
340
0
102
{BLKREFS
331
3AC
102
}
  0
BLOCK_RECORD
  5
3BA
330
1
100
AcDbSymbolTableRecord
100
AcDbBlockTableRecord
  2
block 24
340
0
102
{BLKREFS
331
3BB
102
}
  0
BLOCK_RECORD
  5
3C3
330
1
100
AcDbSymbolTableRecord
100
AcDbBlockTableRecord
  2
block 25
340
0
102
{BLKREFS
331
3C4
102
}
  0
BLOCK_RECORD
  5
3CC
330
1
100
AcDbSymbolTableRecord
100
AcDbBlockTableRecord
  2
block 26
340
0
102
{BLKREFS
331
3CD
102
}
  0
BLOCK_RECORD
  5
3D5
330
1
100
AcDbSymbolTableRecord
100
AcDbBlockTableRecord
  2
block 27
340
0
102
{BLKREFS
331
3D6
102
}
  0
BLOCK_RECORD
  5
3D9
330
1
100
AcDbSymbolTableRecord
100
AcDbBlockTableRecord
  2
block 28
340
0
102
{BLKREFS
331
3DA
102
}
  0
BLOCK_RECORD
  5
3E6
330
1
100
AcDbSymbolTableRecord
100
AcDbBlockTableRecord
  2
block 29
340
0
102
{BLKREFS
331
3E7
102
}
  0
BLOCK_RECORD
  5
3F1
330
1
100
AcDbSymbolTableRecord
100
AcDbBlockTableRecord
  2
block 30
340
0
102
{BLKREFS
331
3F2
102
}
  0
BLOCK_RECORD
  5
3FA
330
1
100
AcDbSymbolTableRecord
100
AcDbBlockTableRecord
  2
block 31
340
0
102
{BLKREFS
331
3FB
102
}
  0
BLOCK_RECORD
  5
403
330
1
100
AcDbSymbolTableRecord
100
AcDbBlockTableRecord
  2
block 32
340
0
102
{BLKREFS
331
404
102
}
  0
BLOCK_RECORD
  5
412
330
1
100
AcDbSymbolTableRecord
100
AcDbBlockTableRecord
  2
block 33
340
0
102
{BLKREFS
331
413
102
}
  0
BLOCK_RECORD
  5
41B
330
1
100
AcDbSymbolTableRecord
100
AcDbBlockTableRecord
  2
block 34
340
0
102
{BLKREFS
331
41C
102
}
  0
BLOCK_RECORD
  5
424
330
1
100
AcDbSymbolTableRecord
100
AcDbBlockTableRecord
  2
block 35
340
0
102
{BLKREFS
331
425
102
}
  0
BLOCK_RECORD
  5
42D
330
1
100
AcDbSymbolTableRecord
100
AcDbBlockTableRecord
  2
block 36
340
0
102
{BLKREFS
331
42E
102
}
  0
BLOCK_RECORD
  5
431
330
1
100
AcDbSymbolTableRecord
100
AcDbBlockTableRecord
  2
block 37
340
0
102
{BLKREFS
331
432
102
}
  0
ENDTAB
  0
ENDSEC
  0
SECTION
  2
BLOCKS
  0
BLOCK
  5
20
330
1F
100
AcDbEntity
  8
0
100
AcDbBlockBegin
  2
*Model_Space
 70
     0
 71
     0
 10
0.0
 20
0.0
 30
0.0
  3
*Model_Space
  1

  0
ENDBLK
  5
21
330
1F
100
AcDbEntity
  8
0
100
AcDbBlockEnd
  0
BLOCK
  5
1C
330
1B
100
AcDbEntity
 67
     1
  8
0
100
AcDbBlockBegin
  2
*Paper_Space
 70
     0
 71
     0
 10
0.0
 20
0.0
 30
0.0
  3
*Paper_Space
  1

  0
ENDBLK
  5
1D
330
1B
100
AcDbEntity
 67
     1
  8
0
100
AcDbBlockEnd
  0
BLOCK
  5
24
330
23
100
AcDbEntity
  8
0
100
AcDbBlockBegin
  2
*Paper_Space0
 70
     0
 71
     0
 10
0.0
 20
0.0
 30
0.0
  3
*Paper_Space0
  1

  0
ENDBLK
  5
25
330
23
100
AcDbEntity
  8
0
100
AcDbBlockEnd
  0
BLOCK
  5
2E0
330
2DE
100
AcDbEntity
  8
0
100
AcDbBlockBegin
  2
block 2
 70
     0
 71
     0
 10
0.0
 20
0.0
 30
0.0
  3
block 2
  1

  0
SPLINE
  5
2E2
330
2DE
100
AcDbEntity
  8
Calque 1
 62
   179
420
  1842203
370
     9
100
AcDbSpline
210
0.0
220
0.0
230
1.0
 70
    11
 71
     3
 72
    17
 73
    13
 74
     0
 42
0.0000000001
 43
0.0000000001
 40
0.0
 40
0.0
 40
0.0
 40
0.0
 40
1.0
 40
1.0
 40
1.0
 40
2.0
 40
2.0
 40
2.0
 40
3.0
 40
3.0
 40
3.0
 40
4.0
 40
4.0
 40
4.0
 40
4.0
 10
63.77530518561098
 20
-114.4602724202949
 30
0.0
 10
64.67154736734471
 20
-114.4602724202949
 30
0.0
 10
65.39846299427462
 20
-115.1868435374491
 30
0.0
 10
65.39846299427462
 20
-116.0832579740707
 30
0.0
 10
65.39846299427462
 20
-116.9796724106923
 30
0.0
 10
64.67154736734471
 20
-117.7062435278464
 30
0.0
 10
63.77530518561098
 20
-117.7062435278464
 30
0.0
 10
62.87923525876514
 20
-117.7062435278464
 30
0.0
 10
62.15249188672313
 20
-116.9796724106923
 30
0.0
 10
62.15249188672313
 20
-116.0832579740707
 30
0.0
 10
62.15249188672313
 20
-115.1868435374491
 30
0.0
 10
62.87923525876514
 20
-114.4602724202949
 30
0.0
 10
63.77530518561098
 20
-114.4602724202949
 30
0.0
  0
SPLINE
  5
2E3
330
2DE
100
AcDbEntity
  8
Calque 1
 62
   179
420
  1842203
370
     9
100
AcDbSpline
210
0.0
220
0.0
230
1.0
 70
    11
 71
     3
 72
    17
 73
    13
 74
     0
 42
0.0000000001
 43
0.0000000001
 40
0.0
 40
0.0
 40
0.0
 40
0.0
 40
1.0
 40
1.0
 40
1.0
 40
2.0
 40
2.0
 40
2.0
 40
3.0
 40
3.0
 40
3.0
 40
4.0
 40
4.0
 40
4.0
 40
4.0
 10
63.77530518561098
 20
-105.1974380784633
 30
0.0
 10
64.67154736734471
 20
-105.1974380784633
 30
0.0
 10
65.39846299427462
 20
-105.9236646858417
 30
0.0
 10
65.39846299427462
 20
-106.8200791224633
 30
0.0
 10
65.39846299427462
 20
-107.7168380688607
 30
0.0
 10
64.67154736734471
 20
-108.443064676239
 30
0.0
 10
63.77530518561098
 20
-108.443064676239
 30
0.0
 10
62.87923525876514
 20
-108.443064676239
 30
0.0
 10
62.15249188672313
 20
-107.7168380688607
 30
0.0
 10
62.15249188672313
 20
-106.8200791224633
 30
0.0
 10
62.15249188672313
 20
-105.9236646858417
 30
0.0
 10
62.87923525876514
 20
-105.1974380784633
 30
0.0
 10
63.77530518561098
 20
-105.1974380784633
 30
0.0
  0
SPLINE
  5
2E4
330
2DE
100
AcDbEntity
  8
Calque 1
 62
   179
420
  1842203
370
     9
100
AcDbSpline
210
0.0
220
0.0
230
1.0
 70
    11
 71
     3
 72
    17
 73
    13
 74
     0
 42
0.0000000001
 43
0.0000000001
 40
0.0
 40
0.0
 40
0.0
 40
0.0
 40
1.0
 40
1.0
 40
1.0
 40
2.0
 40
2.0
 40
2.0
 40
3.0
 40
3.0
 40
3.0
 40
4.0
 40
4.0
 40
4.0
 40
4.0
 10
62.56487008835114
 20
-81.24298434780412
 30
0.0
 10
64.12928898024154
 20
-81.24298434780412
 30
0.0
 10
65.39846299427462
 20
-82.51164159717352
 30
0.0
 10
65.39846299427462
 20
-84.07640499883972
 30
0.0
 10
65.39846299427462
 20
-85.64151291028172
 30
0.0
 10
64.12928898024154
 20
-86.90982564987532
 30
0.0
 10
62.56487008835114
 20
-86.90982564987532
 30
0.0
 10
61.00045119646074
 20
-86.90982564987532
 30
0.0
 10
59.73162169220345
 20
-85.64151291028172
 30
0.0
 10
59.73162169220345
 20
-84.07640499883972
 30
0.0
 10
59.73162169220345
 20
-82.51164159717352
 30
0.0
 10
61.00045119646074
 20
-81.24298434780412
 30
0.0
 10
62.56487008835114
 20
-81.24298434780412
 30
0.0
  0
POLYLINE
  5
2E5
330
2DE
100
AcDbEntity
  8
Calque 1
 62
   179
420
  1842203
370
     9
100
AcDb2dPolyline
 66
     1
 10
0.0
 20
0.0
 30
0.0
  0
VERTEX
  5
2E6
330
2E5
100
AcDbEntity
  8
Calque 1
 62
   179
420
  1842203
370
     9
100
AcDbVertex
100
AcDb2dVertex
 10
59.72524826135122
 20
-127.564046252478
 30
0.0
  0
VERTEX
  5
2E7
330
2E5
100
AcDbEntity
  8
Calque 1
 62
   179
420
  1842203
370
     9
100
AcDbVertex
100
AcDb2dVertex
 10
65.39777397472304
 20
-127.564046252478
 30
0.0
  0
SEQEND
  5
2E8
330
2E5
100
AcDbEntity
  8
Calque 1
370
     9
  0
INSERT
  5
2EA
330
2DE
100
AcDbEntity
  8
Calque 1
100
AcDbBlockReference
  2
block 3
 10
0.0
 20
0.0
 30
0.0
  0
INSERT
  5
2F3
330
2DE
100
AcDbEntity
  8
Calque 1
100
AcDbBlockReference
  2
block 4
 10
0.0
 20
0.0
 30
0.0
  0
INSERT
  5
2FC
330
2DE
100
AcDbEntity
  8
Calque 1
100
AcDbBlockReference
  2
block 5
 10
0.0
 20
0.0
 30
0.0
  0
SPLINE
  5
307
330
2DE
100
AcDbEntity
  8
Calque 1
 62
   179
420
  1842203
370
     9
100
AcDbSpline
210
0.0
220
0.0
230
1.0
 70
    11
 71
     3
 72
    26
 73
    22
 74
     0
 42
0.0000000001
 43
0.0000000001
 40
0.0
 40
0.0
 40
0.0
 40
0.0
 40
1.0
 40
1.0
 40
1.0
 40
2.0
 40
2.0
 40
2.0
 40
3.0
 40
3.0
 40
3.0
 40
4.0
 40
4.0
 40
4.0
 40
5.0
 40
5.0
 40
5.0
 40
6.0
 40
6.0
 40
6.0
 40
7.0
 40
7.0
 40
7.0
 40
7.0
 10
65.39674044539565
 20
-134.5307229386281
 30
0.0
 10
65.39674044539565
 20
-134.5307229386281
 30
0.0
 10
59.71181238009517
 20
-134.5307229386281
 30
0.0
 10
59.71181238009517
 20
-134.5307229386281
 30
0.0
 10
59.71181238009517
 20
-134.5307229386281
 30
0.0
 10
62.51095430843904
 20
-134.5307229386281
 30
0.0
 10
62.51095430843904
 20
-134.5307229386281
 30
0.0
 10
62.51095430843904
 20
-134.5307229386281
 30
0.0
 10
59.71181238009517
 20
-131.3677786870435
 30
0.0
 10
59.71181238009517
 20
-131.3677786870435
 30
0.0
 10
59.71181238009517
 20
-131.3677786870435
 30
0.0
 10
62.51095430843904
 20
-134.5307229386281
 30
0.0
 10
62.51095430843904
 20
-134.5307229386281
 30
0.0
 10
62.51095430843904
 20
-134.5307229386281
 30
0.0
 10
65.39674044539565
 20
-131.3519312373569
 30
0.0
 10
65.39674044539565
 20
-131.3519312373569
 30
0.0
 10
65.39674044539565
 20
-131.3519312373569
 30
0.0
 10
62.51095430843904
 20
-134.5307229386281
 30
0.0
 10
62.51095430843904
 20
-134.5307229386281
 30
0.0
 10
62.51095430843904
 20
-134.5307229386281
 30
0.0
 10
65.39674044539565
 20
-134.5307229386281
 30
0.0
 10
65.39674044539565
 20
-134.5307229386281
 30
0.0
  0
SPLINE
  5
308
330
2DE
100
AcDbEntity
  8
Calque 1
 62
   179
420
  1842203
370
     9
100
AcDbSpline
210
0.0
220
0.0
230
1.0
 70
     8
 71
     3
 72
    29
 73
    25
 74
     0
 42
0.0000000001
 43
0.0000000001
 40
0.0
 40
0.0
 40
0.0
 40
0.0
 40
1.0
 40
1.0
 40
1.0
 40
2.0
 40
2.0
 40
2.0
 40
3.0
 40
3.0
 40
3.0
 40
4.0
 40
4.0
 40
4.0
 40
5.0
 40
5.0
 40
5.0
 40
6.0
 40
6.0
 40
6.0
 40
7.0
 40
7.0
 40
7.0
 40
8.0
 40
8.0
 40
8.0
 40
8.0
 10
65.39674044539565
 20
-109.3887440107995
 30
0.0
 10
65.39674044539565
 20
-109.6033736011206
 30
0.0
 10
65.35384897830903
 20
-109.8035337808581
 30
0.0
 10
65.26754927947209
 20
-109.9899135695639
 30
0.0
 10
65.18142183552304
 20
-110.1762933582696
 30
0.0
 10
65.06480527641604
 20
-110.3392464822212
 30
0.0
 10
64.91787185703897
 20
-110.4791174511944
 30
0.0
 10
64.77128294743771
 20
-110.6189884201677
 30
0.0
 10
64.600061588867
 20
-110.7295760581982
 30
0.0
 10
64.40438003621479
 20
-110.8112248750619
 30
0.0
 10
64.20852622867466
 20
-110.8928736919256
 30
0.0
 10
63.9988920301027
 20
-110.9335258454695
 30
0.0
 10
63.77530518561098
 20
-110.9335258454695
 30
0.0
 10
63.55154608623137
 20
-110.9335258454695
 30
0.0
 10
63.3419118876594
 20
-110.8928736919256
 30
0.0
 10
63.14623033500717
 20
-110.8112248750619
 30
0.0
 10
62.95054878235495
 20
-110.7295760581982
 30
0.0
 10
62.77932742378426
 20
-110.6189884201677
 30
0.0
 10
62.63256625929509
 20
-110.4791174511944
 30
0.0
 10
62.48580509480592
 20
-110.3392464822212
 30
0.0
 10
62.36936079058682
 20
-110.1762933582696
 30
0.0
 10
62.28306109174988
 20
-109.9899135695639
 30
0.0
 10
62.19693364780083
 20
-109.8035337808581
 30
0.0
 10
62.15386992582631
 20
-109.6033736011206
 30
0.0
 10
62.15386992582631
 20
-109.3887440107995
 30
0.0
  0
SPLINE
  5
309
330
2DE
100
AcDbEntity
  8
Calque 1
 62
   179
420
  1842203
370
     9
100
AcDbSpline
210
0.0
220
0.0
230
1.0
 70
     8
 71
     3
 72
    29
 73
    25
 74
     0
 42
0.0000000001
 43
0.0000000001
 40
0.0
 40
0.0
 40
0.0
 40
0.0
 40
1.0
 40
1.0
 40
1.0
 40
2.0
 40
2.0
 40
2.0
 40
3.0
 40
3.0
 40
3.0
 40
4.0
 40
4.0
 40
4.0
 40
5.0
 40
5.0
 40
5.0
 40
6.0
 40
6.0
 40
6.0
 40
7.0
 40
7.0
 40
7.0
 40
8.0
 40
8.0
 40
8.0
 40
8.0
 10
62.15386992582631
 20
-109.3887440107995
 30
0.0
 10
62.15386992582631
 20
-109.6033736011206
 30
0.0
 10
62.19693364780083
 20
-109.8035337808581
 30
0.0
 10
62.28306109174988
 20
-109.9899135695639
 30
0.0
 10
62.36936079058682
 20
-110.1762933582696
 30
0.0
 10
62.48580509480592
 20
-110.3392464822212
 30
0.0
 10
62.63256625929509
 20
-110.4791174511944
 30
0.0
 10
62.77932742378426
 20
-110.6189884201677
 30
0.0
 10
62.95054878235495
 20
-110.7295760581982
 30
0.0
 10
63.14623033500717
 20
-110.8112248750619
 30
0.0
 10
63.3419118876594
 20
-110.8928736919256
 30
0.0
 10
63.55154608623137
 20
-110.9335258454695
 30
0.0
 10
63.77530518561098
 20
-110.9335258454695
 30
0.0
 10
63.9988920301027
 20
-110.9335258454695
 30
0.0
 10
64.20852622867466
 20
-110.8928736919256
 30
0.0
 10
64.40438003621479
 20
-110.8112248750619
 30
0.0
 10
64.600061588867
 20
-110.7295760581982
 30
0.0
 10
64.77128294743771
 20
-110.6189884201677
 30
0.0
 10
64.91787185703897
 20
-110.4791174511944
 30
0.0
 10
65.06480527641604
 20
-110.3392464822212
 30
0.0
 10
65.18142183552304
 20
-110.1762933582696
 30
0.0
 10
65.26754927947209
 20
-109.9899135695639
 30
0.0
 10
65.35384897830903
 20
-109.8035337808581
 30
0.0
 10
65.39674044539565
 20
-109.6033736011206
 30
0.0
 10
65.39674044539565
 20
-109.3887440107995
 30
0.0
  0
INSERT
  5
30B
330
2DE
100
AcDbEntity
  8
Calque 1
100
AcDbBlockReference
  2
block 6
 10
0.0
 20
0.0
 30
0.0
  0
INSERT
  5
314
330
2DE
100
AcDbEntity
  8
Calque 1
100
AcDbBlockReference
  2
block 7
 10
0.0
 20
0.0
 30
0.0
  0
INSERT
  5
31D
330
2DE
100
AcDbEntity
  8
Calque 1
100
AcDbBlockReference
  2
block 8
 10
0.0
 20
0.0
 30
0.0
  0
INSERT
  5
326
330
2DE
100
AcDbEntity
  8
Calque 1
100
AcDbBlockReference
  2
block 9
 10
0.0
 20
0.0
 30
0.0
  0
SPLINE
  5
333
330
2DE
100
AcDbEntity
  8
Calque 1
 62
   179
420
  1842203
370
     9
100
AcDbSpline
210
0.0
220
0.0
230
1.0
 70
     8
 71
     3
 72
    26
 73
    22
 74
     0
 42
0.0000000001
 43
0.0000000001
 40
0.0
 40
0.0
 40
0.0
 40
0.0
 40
1.0
 40
1.0
 40
1.0
 40
2.0
 40
2.0
 40
2.0
 40
3.0
 40
3.0
 40
3.0
 40
4.0
 40
4.0
 40
4.0
 40
5.0
 40
5.0
 40
5.0
 40
6.0
 40
6.0
 40
6.0
 40
7.0
 40
7.0
 40
7.0
 40
7.0
 10
65.1225106638619
 20
-113.4942670089625
 30
0.0
 10
65.2921817284415
 20
-113.3230456503918
 30
0.0
 10
65.39691270028355
 20
-113.087745473523
 30
0.0
 10
65.39691270028355
 20
-112.8276405927969
 30
0.0
 10
65.39691270028355
 20
-112.3046747531383
 30
0.0
 10
64.97316567605426
 20
-111.880927728909
 30
0.0
 10
64.45019983639567
 20
-111.880927728909
 30
0.0
 10
63.92688948696129
 20
-111.880927728909
 30
0.0
 10
63.50331471761991
 20
-112.3046747531383
 30
0.0
 10
63.50331471761991
 20
-112.8276405927969
 30
0.0
 10
63.50331471761991
 20
-112.8276405927969
 30
0.0
 10
63.50331471761991
 20
-112.8362533371918
 30
0.0
 10
63.50331471761991
 20
-112.8362533371918
 30
0.0
 10
63.50331471761991
 20
-113.2103909537064
 30
0.0
 10
63.20049062469507
 20
-113.5132150466313
 30
0.0
 10
62.82652526306833
 20
-113.5132150466313
 30
0.0
 10
62.45273215632949
 20
-113.5132150466313
 30
0.0
 10
62.14990806340466
 20
-113.2103909537064
 30
0.0
 10
62.14990806340466
 20
-112.8362533371918
 30
0.0
 10
62.14990806340466
 20
-112.6498735484861
 30
0.0
 10
62.22518344941612
 20
-112.4810637583459
 30
0.0
 10
62.34696765516006
 20
-112.3587627879383
 30
0.0
  0
SPLINE
  5
334
330
2DE
100
AcDbEntity
  8
Calque 1
 62
   179
420
  1842203
370
     9
100
AcDbSpline
210
0.0
220
0.0
230
1.0
 70
    11
 71
     3
 72
    17
 73
    13
 74
     0
 42
0.0000000001
 43
0.0000000001
 40
0.0
 40
0.0
 40
0.0
 40
0.0
 40
1.0
 40
1.0
 40
1.0
 40
2.0
 40
2.0
 40
2.0
 40
3.0
 40
3.0
 40
3.0
 40
4.0
 40
4.0
 40
4.0
 40
4.0
 10
62.56487008835114
 20
-74.19500335456611
 30
0.0
 10
64.12928898024154
 20
-74.19500335456611
 30
0.0
 10
65.39846299427462
 20
-75.4634883490476
 30
0.0
 10
65.39846299427462
 20
-77.02842400560169
 30
0.0
 10
65.39846299427462
 20
-78.59353191704369
 30
0.0
 10
64.12928898024154
 20
-79.86184465663729
 30
0.0
 10
62.56487008835114
 20
-79.86184465663729
 30
0.0
 10
61.00045119646074
 20
-79.86184465663729
 30
0.0
 10
59.73162169220345
 20
-78.59353191704369
 30
0.0
 10
59.73162169220345
 20
-77.02842400560169
 30
0.0
 10
59.73162169220345
 20
-75.4634883490476
 30
0.0
 10
61.00045119646074
 20
-74.19500335456611
 30
0.0
 10
62.56487008835114
 20
-74.19500335456611
 30
0.0
  0
SPLINE
  5
335
330
2DE
100
AcDbEntity
  8
Calque 1
 62
   179
420
  1842203
370
     9
100
AcDbSpline
210
0.0
220
0.0
230
1.0
 70
    11
 71
     3
 72
    17
 73
    13
 74
     0
 42
0.0000000001
 43
0.0000000001
 40
0.0
 40
0.0
 40
0.0
 40
0.0
 40
1.0
 40
1.0
 40
1.0
 40
2.0
 40
2.0
 40
2.0
 40
3.0
 40
3.0
 40
3.0
 40
4.0
 40
4.0
 40
4.0
 40
4.0
 10
62.56487008835114
 20
-67.15236226285293
 30
0.0
 10
64.12928898024154
 20
-67.15236226285293
 30
0.0
 10
65.39846299427462
 20
-68.42101951222232
 30
0.0
 10
65.39846299427462
 20
-69.98578291388851
 30
0.0
 10
65.39846299427462
 20
-71.55089082533051
 30
0.0
 10
64.12928898024154
 20
-72.81903131003621
 30
0.0
 10
62.56487008835114
 20
-72.81903131003621
 30
0.0
 10
61.00045119646074
 20
-72.81903131003621
 30
0.0
 10
59.73162169220345
 20
-71.55089082533051
 30
0.0
 10
59.73162169220345
 20
-69.98578291388851
 30
0.0
 10
59.73162169220345
 20
-68.42101951222232
 30
0.0
 10
61.00045119646074
 20
-67.15236226285293
 30
0.0
 10
62.56487008835114
 20
-67.15236226285293
 30
0.0
  0
ENDBLK
  5
2E1
330
2DE
100
AcDbEntity
  8
0
100
AcDbBlockEnd
  0
BLOCK
  5
2EB
330
2E9
100
AcDbEntity
  8
0
100
AcDbBlockBegin
  2
block 3
 70
     0
 71
     0
 10
0.0
 20
0.0
 30
0.0
  3
block 3
  1

  0
SPLINE
  5
2ED
330
2E9
100
AcDbEntity
  8
Calque 1
 62
   179
420
  1842203
370
     9
100
AcDbSpline
210
0.0
220
0.0
230
1.0
 70
    11
 71
     3
 72
    17
 73
    13
 74
     0
 42
0.0000000001
 43
0.0000000001
 40
0.0
 40
0.0
 40
0.0
 40
0.0
 40
1.0
 40
1.0
 40
1.0
 40
2.0
 40
2.0
 40
2.0
 40
3.0
 40
3.0
 40
3.0
 40
4.0
 40
4.0
 40
4.0
 40
4.0
 10
63.77530518561098
 20
-118.6567459992681
 30
0.0
 10
64.67154736734471
 20
-118.6567459992681
 30
0.0
 10
65.39846299427462
 20
-119.3833171164222
 30
0.0
 10
65.39846299427462
 20
-120.2797315530438
 30
0.0
 10
65.39846299427462
 20
-121.1761459896654
 30
0.0
 10
64.67154736734471
 20
-121.9023725970438
 30
0.0
 10
63.77530518561098
 20
-121.9023725970438
 30
0.0
 10
62.87923525876514
 20
-121.9023725970438
 30
0.0
 10
62.15249188672313
 20
-121.1761459896654
 30
0.0
 10
62.15249188672313
 20
-120.2797315530438
 30
0.0
 10
62.15249188672313
 20
-119.3833171164222
 30
0.0
 10
62.87923525876514
 20
-118.6567459992681
 30
0.0
 10
63.77530518561098
 20
-118.6567459992681
 30
0.0
  0
POLYLINE
  5
2EE
330
2E9
100
AcDbEntity
  8
Calque 1
 62
   179
420
  1842203
370
     9
100
AcDb2dPolyline
 66
     1
 10
0.0
 20
0.0
 30
0.0
  0
VERTEX
  5
2EF
330
2EE
100
AcDbEntity
  8
Calque 1
 62
   179
420
  1842203
370
     9
100
AcDbVertex
100
AcDb2dVertex
 10
59.72524826135122
 20
-118.6567459992681
 30
0.0
  0
VERTEX
  5
2F0
330
2EE
100
AcDbEntity
  8
Calque 1
 62
   179
420
  1842203
370
     9
100
AcDbVertex
100
AcDb2dVertex
 10
65.39674044539565
 20
-118.6567459992681
 30
0.0
  0
SEQEND
  5
2F1
330
2EE
100
AcDbEntity
  8
Calque 1
370
     9
  0
ENDBLK
  5
2EC
330
2E9
100
AcDbEntity
  8
0
100
AcDbBlockEnd
  0
BLOCK
  5
2F4
330
2F2
100
AcDbEntity
  8
0
100
AcDbBlockBegin
  2
block 4
 70
     0
 71
     0
 10
0.0
 20
0.0
 30
0.0
  3
block 4
  1

  0
SPLINE
  5
2F6
330
2F2
100
AcDbEntity
  8
Calque 1
 62
   179
420
  1842203
370
     9
100
AcDbSpline
210
0.0
220
0.0
230
1.0
 70
    11
 71
     3
 72
    17
 73
    13
 74
     0
 42
0.0000000001
 43
0.0000000001
 40
0.0
 40
0.0
 40
0.0
 40
0.0
 40
1.0
 40
1.0
 40
1.0
 40
2.0
 40
2.0
 40
2.0
 40
3.0
 40
3.0
 40
3.0
 40
4.0
 40
4.0
 40
4.0
 40
4.0
 10
63.77616646005047
 20
-104.2486581559207
 30
0.0
 10
62.87992427831674
 20
-104.2486581559207
 30
0.0
 10
62.15300865138682
 20
-103.5220870387666
 30
0.0
 10
62.15300865138682
 20
-102.6256726021449
 30
0.0
 10
62.15300865138682
 20
-101.7292581655233
 30
0.0
 10
62.87992427831674
 20
-101.0026870483692
 30
0.0
 10
63.77616646005047
 20
-101.0026870483692
 30
0.0
 10
64.6722363868963
 20
-101.0026870483692
 30
0.0
 10
65.39897975893832
 20
-101.7292581655233
 30
0.0
 10
65.39897975893832
 20
-102.6256726021449
 30
0.0
 10
65.39897975893832
 20
-103.5220870387666
 30
0.0
 10
64.6722363868963
 20
-104.2486581559207
 30
0.0
 10
63.77616646005047
 20
-104.2486581559207
 30
0.0
  0
POLYLINE
  5
2F7
330
2F2
100
AcDbEntity
  8
Calque 1
 62
   179
420
  1842203
370
     9
100
AcDb2dPolyline
 66
     1
 10
0.0
 20
0.0
 30
0.0
  0
VERTEX
  5
2F8
330
2F7
100
AcDbEntity
  8
Calque 1
 62
   179
420
  1842203
370
     9
100
AcDbVertex
100
AcDb2dVertex
 10
67.82639563919813
 20
-104.2486581559207
 30
0.0
  0
VERTEX
  5
2F9
330
2F7
100
AcDbEntity
  8
Calque 1
 62
   179
420
  1842203
370
     9
100
AcDbVertex
100
AcDb2dVertex
 10
62.15438669049001
 20
-104.2486581559207
 30
0.0
  0
SEQEND
  5
2FA
330
2F7
100
AcDbEntity
  8
Calque 1
370
     9
  0
ENDBLK
  5
2F5
330
2F2
100
AcDbEntity
  8
0
100
AcDbBlockEnd
  0
BLOCK
  5
2FD
330
2FB
100
AcDbEntity
  8
0
100
AcDbBlockBegin
  2
block 5
 70
     0
 71
     0
 10
0.0
 20
0.0
 30
0.0
  3
block 5
  1

  0
POLYLINE
  5
2FF
330
2FB
100
AcDbEntity
  8
Calque 1
 62
   179
420
  1842203
370
     9
100
AcDb2dPolyline
 66
     1
 10
0.0
 20
0.0
 30
0.0
  0
VERTEX
  5
300
330
2FF
100
AcDbEntity
  8
Calque 1
 62
   179
420
  1842203
370
     9
100
AcDbVertex
100
AcDb2dVertex
 10
62.15800404313587
 20
-122.8508080098106
 30
0.0
  0
VERTEX
  5
301
330
2FF
100
AcDbEntity
  8
Calque 1
 62
   179
420
  1842203
370
     9
100
AcDbVertex
100
AcDb2dVertex
 10
65.39674044539565
 20
-122.8508080098106
 30
0.0
  0
SEQEND
  5
302
330
2FF
100
AcDbEntity
  8
Calque 1
370
     9
  0
POLYLINE
  5
303
330
2FB
100
AcDbEntity
  8
Calque 1
 62
   179
420
  1842203
370
     9
100
AcDb2dPolyline
 66
     1
 10
0.0
 20
0.0
 30
0.0
  0
VERTEX
  5
304
330
303
100
AcDbEntity
  8
Calque 1
 62
   179
420
  1842203
370
     9
100
AcDbVertex
100
AcDb2dVertex
 10
60.46422173043401
 20
-122.8508080098106
 30
0.0
  0
VERTEX
  5
305
330
303
100
AcDbEntity
  8
Calque 1
 62
   179
420
  1842203
370
     9
100
AcDbVertex
100
AcDb2dVertex
 10
60.52588898030152
 20
-122.8508080098106
 30
0.0
  0
SEQEND
  5
306
330
303
100
AcDbEntity
  8
Calque 1
370
     9
  0
ENDBLK
  5
2FE
330
2FB
100
AcDbEntity
  8
0
100
AcDbBlockEnd
  0
BLOCK
  5
30C
330
30A
100
AcDbEntity
  8
0
100
AcDbBlockBegin
  2
block 6
 70
     0
 71
     0
 10
0.0
 20
0.0
 30
0.0
  3
block 6
  1

  0
SPLINE
  5
30E
330
30A
100
AcDbEntity
  8
Calque 1
 62
   179
420
  1842203
370
     9
100
AcDbSpline
210
0.0
220
0.0
230
1.0
 70
     8
 71
     3
 72
    62
 73
    58
 74
     0
 42
0.0000000001
 43
0.0000000001
 40
0.0
 40
0.0
 40
0.0
 40
0.0
 40
1.0
 40
1.0
 40
1.0
 40
2.0
 40
2.0
 40
2.0
 40
3.0
 40
3.0
 40
3.0
 40
4.0
 40
4.0
 40
4.0
 40
5.0
 40
5.0
 40
5.0
 40
6.0
 40
6.0
 40
6.0
 40
7.0
 40
7.0
 40
7.0
 40
8.0
 40
8.0
 40
8.0
 40
9.0
 40
9.0
 40
9.0
 40
10.0
 40
10.0
 40
10.0
 40
11.0
 40
11.0
 40
11.0
 40
12.0
 40
12.0
 40
12.0
 40
13.0
 40
13.0
 40
13.0
 40
14.0
 40
14.0
 40
14.0
 40
15.0
 40
15.0
 40
15.0
 40
16.0
 40
16.0
 40
16.0
 40
17.0
 40
17.0
 40
17.0
 40
18.0
 40
18.0
 40
18.0
 40
19.0
 40
19.0
 40
19.0
 40
19.0
 10
65.36332299714343
 20
-129.6693454923684
 30
0.0
 10
65.34282466548355
 20
-129.5883856950563
 30
0.0
 10
65.31491937364406
 20
-129.509492956399
 30
0.0
 10
65.27960712162495
 20
-129.433356295948
 30
0.0
 10
65.19554673633068
 20
-129.2511106245518
 30
0.0
 10
65.07996370655107
 20
-129.091947108134
 30
0.0
 10
64.9326857773982
 20
-128.9565547662461
 30
0.0
 10
64.78558010313324
 20
-128.8211624243582
 30
0.0
 10
64.61384197989885
 20
-128.7136753743098
 30
0.0
 10
64.41764366258293
 20
-128.6344381258767
 30
0.0
 10
64.22144534526701
 20
-128.5548563676678
 30
0.0
 10
64.01112212714345
 20
-128.5152377434512
 30
0.0
 10
63.78684626310015
 20
-128.5152377434512
 30
0.0
 10
63.56257039905685
 20
-128.5152377434512
 30
0.0
 10
63.3512136516059
 20
-128.5548563676678
 30
0.0
 10
63.1526037658594
 20
-128.6344381258767
 30
0.0
 10
62.95382162522502
 20
-128.7136753743098
 30
0.0
 10
62.78104997266324
 20
-128.8211624243582
 30
0.0
 10
62.63394429839828
 20
-128.9565547662461
 30
0.0
 10
62.48666636924541
 20
-129.091947108134
 30
0.0
 10
62.36987755525051
 20
-129.2511106245518
 30
0.0
 10
62.28340560152567
 20
-129.433356295948
 30
0.0
 10
62.19710590268873
 20
-129.6156019673442
 30
0.0
 10
62.15386992582631
 20
-129.8116280297722
 30
0.0
 10
62.15386992582631
 20
-130.0217789930079
 30
0.0
 10
62.15386992582631
 20
-130.302209950506
 30
0.0
 10
62.22966207650147
 20
-130.5571471845951
 30
0.0
 10
62.38159088762758
 20
-130.7859016757238
 30
0.0
 10
62.53334744386579
 20
-131.0146561668524
 30
0.0
 10
62.73092380028489
 20
-131.1969018382486
 30
0.0
 10
62.97397544710909
 20
-131.3326386899123
 30
0.0
 10
62.73092380028489
 20
-131.1969018382486
 30
0.0
 10
62.53334744386579
 20
-131.0146561668524
 30
0.0
 10
62.38159088762758
 20
-130.7859016757238
 30
0.0
 10
62.22966207650147
 20
-130.5571471845951
 30
0.0
 10
62.15386992582631
 20
-130.302209950506
 30
0.0
 10
62.15386992582631
 20
-130.0217789930079
 30
0.0
 10
62.15386992582631
 20
-129.8116280297722
 30
0.0
 10
62.19710590268873
 20
-129.6156019673442
 30
0.0
 10
62.28340560152567
 20
-129.433356295948
 30
0.0
 10
62.36987755525051
 20
-129.2511106245518
 30
0.0
 10
62.48666636924541
 20
-129.091947108134
 30
0.0
 10
62.63394429839828
 20
-128.9565547662461
 30
0.0
 10
62.78104997266324
 20
-128.8211624243582
 30
0.0
 10
62.95382162522502
 20
-128.7136753743098
 30
0.0
 10
63.1526037658594
 20
-128.6344381258767
 30
0.0
 10
63.3512136516059
 20
-128.5548563676678
 30
0.0
 10
63.56257039905685
 20
-128.5152377434512
 30
0.0
 10
63.78684626310015
 20
-128.5152377434512
 30
0.0
 10
64.01112212714345
 20
-128.5152377434512
 30
0.0
 10
64.22144534526701
 20
-128.5548563676678
 30
0.0
 10
64.41764366258293
 20
-128.6344381258767
 30
0.0
 10
64.61384197989885
 20
-128.7136753743098
 30
0.0
 10
64.78558010313324
 20
-128.8211624243582
 30
0.0
 10
64.9326857773982
 20
-128.9565547662461
 30
0.0
 10
65.07996370655107
 20
-129.091947108134
 30
0.0
 10
65.19554673633068
 20
-129.2511106245518
 30
0.0
 10
65.27960712162495
 20
-129.433356295948
 30
0.0
  0
POLYLINE
  5
30F
330
30A
100
AcDbEntity
  8
Calque 1
 62
   179
420
  1842203
370
     9
100
AcDb2dPolyline
 66
     1
 10
0.0
 20
0.0
 30
0.0
  0
VERTEX
  5
310
330
30F
100
AcDbEntity
  8
Calque 1
 62
   179
420
  1842203
370
     9
100
AcDbVertex
100
AcDb2dVertex
 10
63.84282910166703
 20
-128.5221279389671
 30
0.0
  0
VERTEX
  5
43E
330
30F
100
AcDbEntity
  8
0
100
AcDbVertex
100
AcDb2dVertex
 10
63.84282910166703
 20
-128.5221279389671
 30
0.0
  0
SEQEND
  5
311
330
30F
100
AcDbEntity
  8
Calque 1
370
     9
  0
SPLINE
  5
312
330
30A
100
AcDbEntity
  8
Calque 1
 62
   179
420
  1842203
370
     9
100
AcDbSpline
210
0.0
220
0.0
230
1.0
 70
    11
 71
     3
 72
    17
 73
    13
 74
     0
 42
0.0000000001
 43
0.0000000001
 40
0.0
 40
0.0
 40
0.0
 40
0.0
 40
1.0
 40
1.0
 40
1.0
 40
2.0
 40
2.0
 40
2.0
 40
3.0
 40
3.0
 40
3.0
 40
4.0
 40
4.0
 40
4.0
 40
4.0
 10
64.46897561917656
 20
-130.8489469646945
 30
0.0
 10
63.95548379835238
 20
-130.8489469646945
 30
0.0
 10
63.5396604989664
 20
-130.4331236653085
 30
0.0
 10
63.5396604989664
 20
-129.9198040993722
 30
0.0
 10
63.5396604989664
 20
-129.4064845334359
 30
0.0
 10
63.95548379835238
 20
-128.99066123405
 30
0.0
 10
64.46897561917656
 20
-128.99066123405
 30
0.0
 10
64.98212293022496
 20
-128.99066123405
 30
0.0
 10
65.39794622961094
 20
-129.4064845334359
 30
0.0
 10
65.39794622961094
 20
-129.9198040993722
 30
0.0
 10
65.39794622961094
 20
-130.4331236653085
 30
0.0
 10
64.98212293022496
 20
-130.8489469646945
 30
0.0
 10
64.46897561917656
 20
-130.8489469646945
 30
0.0
  0
ENDBLK
  5
30D
330
30A
100
AcDbEntity
  8
0
100
AcDbBlockEnd
  0
BLOCK
  5
315
330
313
100
AcDbEntity
  8
0
100
AcDbBlockBegin
  2
block 7
 70
     0
 71
     0
 10
0.0
 20
0.0
 30
0.0
  3
block 7
  1

  0
SPLINE
  5
317
330
313
100
AcDbEntity
  8
Calque 1
 62
   179
420
  1842203
370
     9
100
AcDbSpline
210
0.0
220
0.0
230
1.0
 70
     8
 71
     3
 72
    62
 73
    58
 74
     0
 42
0.0000000001
 43
0.0000000001
 40
0.0
 40
0.0
 40
0.0
 40
0.0
 40
1.0
 40
1.0
 40
1.0
 40
2.0
 40
2.0
 40
2.0
 40
3.0
 40
3.0
 40
3.0
 40
4.0
 40
4.0
 40
4.0
 40
5.0
 40
5.0
 40
5.0
 40
6.0
 40
6.0
 40
6.0
 40
7.0
 40
7.0
 40
7.0
 40
8.0
 40
8.0
 40
8.0
 40
9.0
 40
9.0
 40
9.0
 40
10.0
 40
10.0
 40
10.0
 40
11.0
 40
11.0
 40
11.0
 40
12.0
 40
12.0
 40
12.0
 40
13.0
 40
13.0
 40
13.0
 40
14.0
 40
14.0
 40
14.0
 40
15.0
 40
15.0
 40
15.0
 40
16.0
 40
16.0
 40
16.0
 40
17.0
 40
17.0
 40
17.0
 40
18.0
 40
18.0
 40
18.0
 40
19.0
 40
19.0
 40
19.0
 40
19.0
 10
62.18608158986326
 20
-98.89842133780618
 30
0.0
 10
62.20675217641102
 20
-98.97938113511829
 30
0.0
 10
62.23448521336262
 20
-99.05827387377562
 30
0.0
 10
62.26962521049383
 20
-99.13441053422656
 30
0.0
 10
62.35385785067599
 20
-99.31665620562273
 30
0.0
 10
62.4694408804556
 20
-99.47547521226477
 30
0.0
 10
62.61654655472056
 20
-99.61086755415266
 30
0.0
 10
62.76365222898553
 20
-99.74660440581636
 30
0.0
 10
62.93556260710782
 20
-99.85409145586476
 30
0.0
 10
63.13176092442374
 20
-99.93332870429788
 30
0.0
 10
63.32778698685176
 20
-100.0129104625068
 30
0.0
 10
63.53828245986322
 20
-100.0525290867234
 30
0.0
 10
63.76255832390653
 20
-100.0525290867234
 30
0.0
 10
63.98683418794983
 20
-100.0525290867234
 30
0.0
 10
64.19819093540077
 20
-100.0129104625068
 30
0.0
 10
64.39680082114727
 20
-99.93332870429788
 30
0.0
 10
64.59558296178166
 20
-99.85409145586476
 30
0.0
 10
64.76818235945554
 20
-99.74660440581636
 30
0.0
 10
64.9154602886084
 20
-99.61086755415266
 30
0.0
 10
65.06256596287336
 20
-99.47547521226477
 30
0.0
 10
65.17952703175617
 20
-99.31665620562273
 30
0.0
 10
65.2658267305931
 20
-99.13441053422656
 30
0.0
 10
65.35229868431794
 20
-98.95216486283039
 30
0.0
 10
65.39553466118036
 20
-98.75579429062658
 30
0.0
 10
65.39553466118036
 20
-98.54564332739092
 30
0.0
 10
65.39553466118036
 20
-98.26521236989284
 30
0.0
 10
65.31957025561731
 20
-98.01061964557947
 30
0.0
 10
65.1678136993791
 20
-97.78186515445081
 30
0.0
 10
65.01605714314088
 20
-97.55276615354636
 30
0.0
 10
64.81848078672178
 20
-97.37052048215018
 30
0.0
 10
64.57542913989758
 20
-97.23512814026229
 30
0.0
 10
64.81848078672178
 20
-97.37052048215018
 30
0.0
 10
65.01605714314088
 20
-97.55276615354636
 30
0.0
 10
65.1678136993791
 20
-97.78186515445081
 30
0.0
 10
65.31957025561731
 20
-98.01061964557947
 30
0.0
 10
65.39553466118036
 20
-98.26521236989284
 30
0.0
 10
65.39553466118036
 20
-98.54564332739092
 30
0.0
 10
65.39553466118036
 20
-98.75579429062658
 30
0.0
 10
65.35229868431794
 20
-98.95216486283039
 30
0.0
 10
65.2658267305931
 20
-99.13441053422656
 30
0.0
 10
65.17952703175617
 20
-99.31665620562273
 30
0.0
 10
65.06256596287336
 20
-99.47547521226477
 30
0.0
 10
64.9154602886084
 20
-99.61086755415266
 30
0.0
 10
64.76818235945554
 20
-99.74660440581636
 30
0.0
 10
64.59558296178166
 20
-99.85409145586476
 30
0.0
 10
64.39680082114727
 20
-99.93332870429788
 30
0.0
 10
64.19819093540077
 20
-100.0129104625068
 30
0.0
 10
63.98683418794983
 20
-100.0525290867234
 30
0.0
 10
63.76255832390653
 20
-100.0525290867234
 30
0.0
 10
63.53828245986322
 20
-100.0525290867234
 30
0.0
 10
63.32778698685176
 20
-100.0129104625068
 30
0.0
 10
63.13176092442374
 20
-99.93332870429788
 30
0.0
 10
62.93556260710782
 20
-99.85409145586476
 30
0.0
 10
62.76365222898553
 20
-99.74660440581636
 30
0.0
 10
62.61654655472056
 20
-99.61086755415266
 30
0.0
 10
62.4694408804556
 20
-99.47547521226477
 30
0.0
 10
62.35385785067599
 20
-99.31665620562273
 30
0.0
 10
62.26962521049383
 20
-99.13441053422656
 30
0.0
  0
POLYLINE
  5
318
330
313
100
AcDbEntity
  8
Calque 1
 62
   179
420
  1842203
370
     9
100
AcDb2dPolyline
 66
     1
 10
0.0
 20
0.0
 30
0.0
  0
VERTEX
  5
319
330
318
100
AcDbEntity
  8
Calque 1
 62
   179
420
  1842203
370
     9
100
AcDbVertex
100
AcDb2dVertex
 10
63.70640323045175
 20
-100.0456388912074
 30
0.0
  0
VERTEX
  5
43F
330
318
100
AcDbEntity
  8
0
100
AcDbVertex
100
AcDb2dVertex
 10
63.70640323045175
 20
-100.0456388912074
 30
0.0
  0
SEQEND
  5
31A
330
318
100
AcDbEntity
  8
Calque 1
370
     9
  0
SPLINE
  5
31B
330
313
100
AcDbEntity
  8
Calque 1
 62
   179
420
  1842203
370
     9
100
AcDbSpline
210
0.0
220
0.0
230
1.0
 70
    11
 71
     3
 72
    17
 73
    13
 74
     0
 42
0.0000000001
 43
0.0000000001
 40
0.0
 40
0.0
 40
0.0
 40
0.0
 40
1.0
 40
1.0
 40
1.0
 40
2.0
 40
2.0
 40
2.0
 40
3.0
 40
3.0
 40
3.0
 40
4.0
 40
4.0
 40
4.0
 40
4.0
 10
63.08042896783011
 20
-97.71881986548011
 30
0.0
 10
63.59392078865429
 20
-97.71881986548011
 30
0.0
 10
64.00957183315238
 20
-98.13429865509029
 30
0.0
 10
64.00957183315238
 20
-98.64761822102658
 30
0.0
 10
64.00957183315238
 20
-99.16128229673866
 30
0.0
 10
63.59392078865429
 20
-99.57676108634885
 30
0.0
 10
63.08042896783011
 20
-99.57676108634885
 30
0.0
 10
62.56710940189382
 20
-99.57676108634885
 30
0.0
 10
62.15128610250784
 20
-99.16128229673866
 30
0.0
 10
62.15128610250784
 20
-98.64761822102658
 30
0.0
 10
62.15128610250784
 20
-98.13429865509029
 30
0.0
 10
62.56710940189382
 20
-97.71881986548011
 30
0.0
 10
63.08042896783011
 20
-97.71881986548011
 30
0.0
  0
ENDBLK
  5
316
330
313
100
AcDbEntity
  8
0
100
AcDbBlockEnd
  0
BLOCK
  5
31E
330
31C
100
AcDbEntity
  8
0
100
AcDbBlockBegin
  2
block 8
 70
     0
 71
     0
 10
0.0
 20
0.0
 30
0.0
  3
block 8
  1

  0
SPLINE
  5
320
330
31C
100
AcDbEntity
  8
Calque 1
 62
   179
420
  1842203
370
     9
100
AcDbSpline
210
0.0
220
0.0
230
1.0
 70
     8
 71
     3
 72
    62
 73
    58
 74
     0
 42
0.0000000001
 43
0.0000000001
 40
0.0
 40
0.0
 40
0.0
 40
0.0
 40
1.0
 40
1.0
 40
1.0
 40
2.0
 40
2.0
 40
2.0
 40
3.0
 40
3.0
 40
3.0
 40
4.0
 40
4.0
 40
4.0
 40
5.0
 40
5.0
 40
5.0
 40
6.0
 40
6.0
 40
6.0
 40
7.0
 40
7.0
 40
7.0
 40
8.0
 40
8.0
 40
8.0
 40
9.0
 40
9.0
 40
9.0
 40
10.0
 40
10.0
 40
10.0
 40
11.0
 40
11.0
 40
11.0
 40
12.0
 40
12.0
 40
12.0
 40
13.0
 40
13.0
 40
13.0
 40
14.0
 40
14.0
 40
14.0
 40
15.0
 40
15.0
 40
15.0
 40
16.0
 40
16.0
 40
16.0
 40
17.0
 40
17.0
 40
17.0
 40
18.0
 40
18.0
 40
18.0
 40
19.0
 40
19.0
 40
19.0
 40
19.0
 10
65.18882879570266
 20
-91.60411585487391
 30
0.0
 10
65.0415508665498
 20
-91.92278739748537
 30
0.0
 10
64.83984039282115
 20
-92.20046227677707
 30
0.0
 10
64.5823193354135
 20
-92.43731274763694
 30
0.0
 10
64.32514278778167
 20
-92.6743354733847
 30
0.0
 10
64.02507477306321
 20
-92.86192104630572
 30
0.0
 10
63.68194303637022
 20
-93.00075848595158
 30
0.0
 10
63.33898355456513
 20
-93.13976818048533
 30
0.0
 10
62.97156387867852
 20
-93.20901464542035
 30
0.0
 10
62.57951175382248
 20
-93.20901464542035
 30
0.0
 10
62.18745962896644
 20
-93.20901464542035
 30
0.0
 10
61.81797289442505
 20
-93.13976818048533
 30
0.0
 10
61.47087929531041
 20
-93.00075848595158
 30
0.0
 10
61.12361344130787
 20
-92.86192104630572
 30
0.0
 10
60.82165062282252
 20
-92.6743354733847
 30
0.0
 10
60.56430182030279
 20
-92.43731274763694
 30
0.0
 10
60.30695301778305
 20
-92.20046227677707
 30
0.0
 10
60.10265872073592
 20
-91.92278739748537
 30
0.0
 10
59.9519356938251
 20
-91.60411585487391
 30
0.0
 10
59.80052364736268
 20
-91.28561656715036
 30
0.0
 10
59.72524826135122
 20
-90.94282934023316
 30
0.0
 10
59.72524826135122
 20
-90.57523740945865
 30
0.0
 10
59.72507600646332
 20
-90.0851722533886
 30
0.0
 10
59.85771227014484
 20
-89.64006562305995
 30
0.0
 10
60.1231570523958
 20
-89.2399175184727
 30
0.0
 10
60.38842957975884
 20
-88.83994166877335
 30
0.0
 10
60.7336283751066
 20
-88.5214423810498
 30
0.0
 10
61.15840892866328
 20
-88.28441965530203
 30
0.0
 10
60.7336283751066
 20
-88.5214423810498
 30
0.0
 10
60.38842957975884
 20
-88.83994166877335
 30
0.0
 10
60.1231570523958
 20
-89.2399175184727
 30
0.0
 10
59.85771227014484
 20
-89.64006562305995
 30
0.0
 10
59.72507600646332
 20
-90.0851722533886
 30
0.0
 10
59.72524826135122
 20
-90.57523740945865
 30
0.0
 10
59.72524826135122
 20
-90.94282934023316
 30
0.0
 10
59.80052364736268
 20
-91.28561656715036
 30
0.0
 10
59.9519356938251
 20
-91.60411585487391
 30
0.0
 10
60.10265872073592
 20
-91.92278739748537
 30
0.0
 10
60.30695301778305
 20
-92.20046227677707
 30
0.0
 10
60.56430182030279
 20
-92.43731274763694
 30
0.0
 10
60.82165062282252
 20
-92.6743354733847
 30
0.0
 10
61.12361344130787
 20
-92.86192104630572
 30
0.0
 10
61.47087929531041
 20
-93.00075848595158
 30
0.0
 10
61.81797289442505
 20
-93.13976818048533
 30
0.0
 10
62.18745962896644
 20
-93.20901464542035
 30
0.0
 10
62.57951175382248
 20
-93.20901464542035
 30
0.0
 10
62.97156387867852
 20
-93.20901464542035
 30
0.0
 10
63.33898355456513
 20
-93.13976818048533
 30
0.0
 10
63.68194303637022
 20
-93.00075848595158
 30
0.0
 10
64.02507477306321
 20
-92.86192104630572
 30
0.0
 10
64.32514278778167
 20
-92.6743354733847
 30
0.0
 10
64.5823193354135
 20
-92.43731274763694
 30
0.0
 10
64.83984039282115
 20
-92.20046227677707
 30
0.0
 10
65.0415508665498
 20
-91.92278739748537
 30
0.0
 10
65.18882879570266
 20
-91.60411585487391
 30
0.0
 10
65.25032379068227
 20
-91.47096282652869
 30
0.0
 10
65.29872741418164
 20
-91.33315891621022
 30
0.0
 10
65.33472868575234
 20
-91.191565398358
 30
0.0
  0
POLYLINE
  5
321
330
31C
100
AcDbEntity
  8
Calque 1
 62
   179
420
  1842203
370
     9
100
AcDb2dPolyline
 66
     1
 10
0.0
 20
0.0
 30
0.0
  0
VERTEX
  5
322
330
321
100
AcDbEntity
  8
Calque 1
 62
   179
420
  1842203
370
     9
100
AcDbVertex
100
AcDb2dVertex
 10
62.67752478503649
 20
-93.1967845483796
 30
0.0
  0
VERTEX
  5
440
330
321
100
AcDbEntity
  8
0
100
AcDbVertex
100
AcDb2dVertex
 10
62.67752478503649
 20
-93.1967845483796
 30
0.0
  0
SEQEND
  5
323
330
321
100
AcDbEntity
  8
Calque 1
370
     9
  0
SPLINE
  5
324
330
31C
100
AcDbEntity
  8
Calque 1
 62
   179
420
  1842203
370
     9
100
AcDbSpline
210
0.0
220
0.0
230
1.0
 70
    11
 71
     3
 72
    17
 73
    13
 74
     0
 42
0.0000000001
 43
0.0000000001
 40
0.0
 40
0.0
 40
0.0
 40
0.0
 40
1.0
 40
1.0
 40
1.0
 40
2.0
 40
2.0
 40
2.0
 40
3.0
 40
3.0
 40
3.0
 40
4.0
 40
4.0
 40
4.0
 40
4.0
 10
63.77151557807722
 20
-89.12984664510583
 30
0.0
 10
62.8742398670161
 20
-89.12984664510583
 30
0.0
 10
62.14732424008618
 20
-89.85659001714784
 30
0.0
 10
62.14749649497409
 20
-90.75369347332106
 30
0.0
 10
62.14749649497409
 20
-91.65096918438219
 30
0.0
 10
62.8742398670161
 20
-92.3778848113121
 30
0.0
 10
63.77151557807722
 20
-92.3778848113121
 30
0.0
 10
64.66879128913834
 20
-92.3778848113121
 30
0.0
 10
65.39536240629246
 20
-91.65096918438219
 30
0.0
 10
65.39536240629246
 20
-90.75369347332106
 30
0.0
 10
65.39536240629246
 20
-89.85659001714784
 30
0.0
 10
64.66861903425044
 20
-89.12984664510583
 30
0.0
 10
63.77151557807722
 20
-89.12984664510583
 30
0.0
  0
ENDBLK
  5
31F
330
31C
100
AcDbEntity
  8
0
100
AcDbBlockEnd
  0
BLOCK
  5
327
330
325
100
AcDbEntity
  8
0
100
AcDbBlockBegin
  2
block 9
 70
     0
 71
     0
 10
0.0
 20
0.0
 30
0.0
  3
block 9
  1

  0
INSERT
  5
32A
330
325
100
AcDbEntity
  8
Calque 1
100
AcDbBlockReference
  2
block 10
 10
0.0
 20
0.0
 30
0.0
  0
SPLINE
  5
332
330
325
100
AcDbEntity
  8
Calque 1
 62
   179
420
  1842203
370
     9
100
AcDbSpline
210
0.0
220
0.0
230
1.0
 70
     8
 71
     3
 72
     8
 73
     4
 74
     0
 42
0.0000000001
 43
0.0000000001
 40
0.0
 40
0.0
 40
0.0
 40
0.0
 40
1.0
 40
1.0
 40
1.0
 40
1.0
 10
60.46422173043401
 20
-124.7466453060169
 30
0.0
 10
60.97409619861233
 20
-124.7466453060169
 30
0.0
 10
61.38716341979194
 20
-125.1597125271965
 30
0.0
 10
61.38716341979194
 20
-125.6695869953749
 30
0.0
  0
ENDBLK
  5
328
330
325
100
AcDbEntity
  8
0
100
AcDbBlockEnd
  0
BLOCK
  5
32B
330
329
100
AcDbEntity
  8
0
100
AcDbBlockBegin
  2
block 10
 70
     0
 71
     0
 10
0.0
 20
0.0
 30
0.0
  3
block 10
  1

  0
SPLINE
  5
32D
330
329
100
AcDbEntity
  8
Calque 1
 62
   179
420
  1842203
370
     9
100
AcDbSpline
210
0.0
220
0.0
230
1.0
 70
     8
 71
     3
 72
    62
 73
    58
 74
     0
 42
0.0000000001
 43
0.0000000001
 40
0.0
 40
0.0
 40
0.0
 40
0.0
 40
1.0
 40
1.0
 40
1.0
 40
2.0
 40
2.0
 40
2.0
 40
3.0
 40
3.0
 40
3.0
 40
4.0
 40
4.0
 40
4.0
 40
5.0
 40
5.0
 40
5.0
 40
6.0
 40
6.0
 40
6.0
 40
7.0
 40
7.0
 40
7.0
 40
8.0
 40
8.0
 40
8.0
 40
9.0
 40
9.0
 40
9.0
 40
10.0
 40
10.0
 40
10.0
 40
11.0
 40
11.0
 40
11.0
 40
12.0
 40
12.0
 40
12.0
 40
13.0
 40
13.0
 40
13.0
 40
14.0
 40
14.0
 40
14.0
 40
15.0
 40
15.0
 40
15.0
 40
16.0
 40
16.0
 40
16.0
 40
17.0
 40
17.0
 40
17.0
 40
18.0
 40
18.0
 40
18.0
 40
19.0
 40
19.0
 40
19.0
 40
19.0
 10
62.18849315829382
 20
-125.4625366201214
 30
0.0
 10
62.2089914899537
 20
-125.5438409272093
 30
0.0
 10
62.23672452690529
 20
-125.6223891560908
 30
0.0
 10
62.2718645240365
 20
-125.6988703263176
 30
0.0
 10
62.35609716421866
 20
-125.8811159977137
 30
0.0
 10
62.47150793911038
 20
-126.0399350043558
 30
0.0
 10
62.61878586826325
 20
-126.1753273462437
 30
0.0
 10
62.7660637974161
 20
-126.3110641979073
 30
0.0
 10
62.93762966576259
 20
-126.41820673818
 30
0.0
 10
63.13417249285431
 20
-126.4977884963889
 30
0.0
 10
63.33019855528233
 20
-126.5773702545978
 30
0.0
 10
63.54052177340589
 20
-126.6169888788143
 30
0.0
 10
63.7647976374492
 20
-126.6169888788143
 30
0.0
 10
63.98907350149251
 20
-126.6169888788143
 30
0.0
 10
64.20060250383135
 20
-126.5773702545978
 30
0.0
 10
64.39904013468994
 20
-126.4977884963889
 30
0.0
 10
64.59765002043643
 20
-126.41820673818
 30
0.0
 10
64.77042167299821
 20
-126.3110641979073
 30
0.0
 10
64.91769960215107
 20
-126.1753273462437
 30
0.0
 10
65.06497753130394
 20
-126.0399350043558
 30
0.0
 10
65.18176634529884
 20
-125.8811159977137
 30
0.0
 10
65.26806604413578
 20
-125.6988703263176
 30
0.0
 10
65.35471025274852
 20
-125.5166246549214
 30
0.0
 10
65.39794622961094
 20
-125.3202540827176
 30
0.0
 10
65.39794622961094
 20
-125.1101031194819
 30
0.0
 10
65.39794622961094
 20
-124.8296721619838
 30
0.0
 10
65.32198182404788
 20
-124.5750794376705
 30
0.0
 10
65.17005301292177
 20
-124.345980436766
 30
0.0
 10
65.01829645668356
 20
-124.1172259456373
 30
0.0
 10
64.82089235515235
 20
-123.9349802742412
 30
0.0
 10
64.57784070832815
 20
-123.7995879323533
 30
0.0
 10
64.82089235515235
 20
-123.9349802742412
 30
0.0
 10
65.01829645668356
 20
-124.1172259456373
 30
0.0
 10
65.17005301292177
 20
-124.345980436766
 30
0.0
 10
65.32198182404788
 20
-124.5750794376705
 30
0.0
 10
65.39794622961094
 20
-124.8296721619838
 30
0.0
 10
65.39794622961094
 20
-125.1101031194819
 30
0.0
 10
65.39794622961094
 20
-125.3202540827176
 30
0.0
 10
65.35471025274852
 20
-125.5166246549214
 30
0.0
 10
65.26806604413578
 20
-125.6988703263176
 30
0.0
 10
65.18176634529884
 20
-125.8811159977137
 30
0.0
 10
65.06497753130394
 20
-126.0399350043558
 30
0.0
 10
64.91769960215107
 20
-126.1753273462437
 30
0.0
 10
64.77042167299821
 20
-126.3110641979073
 30
0.0
 10
64.59765002043643
 20
-126.41820673818
 30
0.0
 10
64.39904013468994
 20
-126.4977884963889
 30
0.0
 10
64.20060250383135
 20
-126.5773702545978
 30
0.0
 10
63.98907350149251
 20
-126.6169888788143
 30
0.0
 10
63.7647976374492
 20
-126.6169888788143
 30
0.0
 10
63.54052177340589
 20
-126.6169888788143
 30
0.0
 10
63.33019855528233
 20
-126.5773702545978
 30
0.0
 10
63.13417249285431
 20
-126.4977884963889
 30
0.0
 10
62.93762966576259
 20
-126.41820673818
 30
0.0
 10
62.7660637974161
 20
-126.3110641979073
 30
0.0
 10
62.61878586826325
 20
-126.1753273462437
 30
0.0
 10
62.47150793911038
 20
-126.0399350043558
 30
0.0
 10
62.35609716421866
 20
-125.8811159977137
 30
0.0
 10
62.2718645240365
 20
-125.6988703263176
 30
0.0
  0
POLYLINE
  5
32E
330
329
100
AcDbEntity
  8
Calque 1
 62
   179
420
  1842203
370
     9
100
AcDb2dPolyline
 66
     1
 10
0.0
 20
0.0
 30
0.0
  0
VERTEX
  5
32F
330
32E
100
AcDbEntity
  8
Calque 1
 62
   179
420
  1842203
370
     9
100
AcDbVertex
100
AcDb2dVertex
 10
63.70881479888232
 20
-126.6097541735226
 30
0.0
  0
VERTEX
  5
441
330
32E
100
AcDbEntity
  8
0
100
AcDbVertex
100
AcDb2dVertex
 10
63.70881479888232
 20
-126.6097541735226
 30
0.0
  0
SEQEND
  5
330
330
32E
100
AcDbEntity
  8
Calque 1
370
     9
  0
SPLINE
  5
331
330
329
100
AcDbEntity
  8
Calque 1
 62
   179
420
  1842203
370
     9
100
AcDbSpline
210
0.0
220
0.0
230
1.0
 70
    11
 71
     3
 72
    17
 73
    13
 74
     0
 42
0.0000000001
 43
0.0000000001
 40
0.0
 40
0.0
 40
0.0
 40
0.0
 40
1.0
 40
1.0
 40
1.0
 40
2.0
 40
2.0
 40
2.0
 40
3.0
 40
3.0
 40
3.0
 40
4.0
 40
4.0
 40
4.0
 40
4.0
 10
63.08266828137278
 20
-124.2832796575711
 30
0.0
 10
63.59616010219698
 20
-124.2832796575711
 30
0.0
 10
64.01198340158295
 20
-124.6987584471813
 30
0.0
 10
64.01198340158295
 20
-125.2120780131176
 30
0.0
 10
64.01198340158295
 20
-125.7253975790539
 30
0.0
 10
63.59616010219698
 20
-126.1412208784398
 30
0.0
 10
63.08266828137278
 20
-126.1412208784398
 30
0.0
 10
62.56952097032439
 20
-126.1412208784398
 30
0.0
 10
62.15369767093841
 20
-125.7253975790539
 30
0.0
 10
62.15369767093841
 20
-125.2120780131176
 30
0.0
 10
62.15369767093841
 20
-124.6987584471813
 30
0.0
 10
62.56952097032439
 20
-124.2832796575711
 30
0.0
 10
63.08266828137278
 20
-124.2832796575711
 30
0.0
  0
ENDBLK
  5
32C
330
329
100
AcDbEntity
  8
0
100
AcDbBlockEnd
  0
BLOCK
  5
338
330
336
100
AcDbEntity
  8
0
100
AcDbBlockBegin
  2
block 11
 70
     0
 71
     0
 10
0.0
 20
0.0
 30
0.0
  3
block 11
  1

  0
SPLINE
  5
33A
330
336
100
AcDbEntity
  8
Calque 1
 62
   179
420
  1842203
370
     9
100
AcDbSpline
210
0.0
220
0.0
230
1.0
 70
    11
 71
     3
 72
    17
 73
    13
 74
     0
 42
0.0000000001
 43
0.0000000001
 40
0.0
 40
0.0
 40
0.0
 40
0.0
 40
1.0
 40
1.0
 40
1.0
 40
2.0
 40
2.0
 40
2.0
 40
3.0
 40
3.0
 40
3.0
 40
4.0
 40
4.0
 40
4.0
 40
4.0
 10
136.7099195254268
 20
-235.8927336831527
 30
0.0
 10
136.7099195254268
 20
-240.4030556678762
 30
0.0
 10
133.0541540395658
 20
-244.0603714477283
 30
0.0
 10
128.5438320548423
 20
-244.0603714477283
 30
0.0
 10
124.033337815231
 20
-244.0603714477283
 30
0.0
 10
120.3775723293699
 20
-240.4030556678762
 30
0.0
 10
120.3775723293699
 20
-235.8927336831527
 30
0.0
 10
120.3775723293699
 20
-231.3837897375325
 30
0.0
 10
124.033337815231
 20
-227.7281965065593
 30
0.0
 10
128.5438320548423
 20
-227.7281965065593
 30
0.0
 10
133.0541540395658
 20
-227.7281965065593
 30
0.0
 10
136.7099195254268
 20
-231.3837897375325
 30
0.0
 10
136.7099195254268
 20
-235.8927336831527
 30
0.0
  0
SPLINE
  5
33B
330
336
100
AcDbEntity
  8
Calque 1
 62
   179
420
  1842203
370
     9
100
AcDbSpline
210
0.0
220
0.0
230
1.0
 70
    11
 71
     3
 72
    17
 73
    13
 74
     0
 42
0.0000000001
 43
0.0000000001
 40
0.0
 40
0.0
 40
0.0
 40
0.0
 40
1.0
 40
1.0
 40
1.0
 40
2.0
 40
2.0
 40
2.0
 40
3.0
 40
3.0
 40
3.0
 40
4.0
 40
4.0
 40
4.0
 40
4.0
 10
183.3164077793478
 20
-235.8927336831527
 30
0.0
 10
183.3164077793478
 20
-240.4030556678762
 30
0.0
 10
179.6623648423657
 20
-244.0603714477283
 30
0.0
 10
175.1520428576423
 20
-244.0603714477283
 30
0.0
 10
170.639826069152
 20
-244.0603714477283
 30
0.0
 10
166.9857831321699
 20
-240.4030556678762
 30
0.0
 10
166.9857831321699
 20
-235.8927336831527
 30
0.0
 10
166.9857831321699
 20
-231.3837897375325
 30
0.0
 10
170.639826069152
 20
-227.7281965065593
 30
0.0
 10
175.1520428576423
 20
-227.7281965065593
 30
0.0
 10
179.6623648423657
 20
-227.7281965065593
 30
0.0
 10
183.3164077793478
 20
-231.3837897375325
 30
0.0
 10
183.3164077793478
 20
-235.8927336831527
 30
0.0
  0
SPLINE
  5
33C
330
336
100
AcDbEntity
  8
Calque 1
 62
   179
420
  1842203
370
     9
100
AcDbSpline
210
0.0
220
0.0
230
1.0
 70
    11
 71
     3
 72
    17
 73
    13
 74
     0
 42
0.0000000001
 43
0.0000000001
 40
0.0
 40
0.0
 40
0.0
 40
0.0
 40
1.0
 40
1.0
 40
1.0
 40
2.0
 40
2.0
 40
2.0
 40
3.0
 40
3.0
 40
3.0
 40
4.0
 40
4.0
 40
4.0
 40
4.0
 10
303.8445308807406
 20
-229.8031788861797
 30
0.0
 10
303.8445308807406
 20
-237.6745382435705
 30
0.0
 10
297.4621427743409
 20
-244.0603714477283
 30
0.0
 10
289.589060868071
 20
-244.0603714477283
 30
0.0
 10
281.7121893542674
 20
-244.0603714477283
 30
0.0
 10
275.3315237967465
 20
-237.6745382435705
 30
0.0
 10
275.3315237967465
 20
-229.8031788861797
 30
0.0
 10
275.3315237967465
 20
-221.9318195287888
 30
0.0
 10
281.7121893542674
 20
-215.5473643637342
 30
0.0
 10
289.589060868071
 20
-215.5473643637342
 30
0.0
 10
297.4621427743409
 20
-215.5473643637342
 30
0.0
 10
303.8445308807406
 20
-221.9318195287888
 30
0.0
 10
303.8445308807406
 20
-229.8031788861797
 30
0.0
  0
POLYLINE
  5
33D
330
336
100
AcDbEntity
  8
Calque 1
 62
   179
420
  1842203
370
     9
100
AcDb2dPolyline
 66
     1
 10
0.0
 20
0.0
 30
0.0
  0
VERTEX
  5
33E
330
33D
100
AcDbEntity
  8
Calque 1
 62
   179
420
  1842203
370
     9
100
AcDbVertex
100
AcDb2dVertex
 10
70.77746637866811
 20
-215.5142914252578
 30
0.0
  0
VERTEX
  5
33F
330
33D
100
AcDbEntity
  8
Calque 1
 62
   179
420
  1842203
370
     9
100
AcDbVertex
100
AcDb2dVertex
 10
70.77746637866811
 20
-244.0569263499704
 30
0.0
  0
SEQEND
  5
340
330
33D
100
AcDbEntity
  8
Calque 1
370
     9
  0
INSERT
  5
342
330
336
100
AcDbEntity
  8
Calque 1
100
AcDbBlockReference
  2
block 12
 10
0.0
 20
0.0
 30
0.0
  0
INSERT
  5
34B
330
336
100
AcDbEntity
  8
Calque 1
100
AcDbBlockReference
  2
block 13
 10
0.0
 20
0.0
 30
0.0
  0
INSERT
  5
354
330
336
100
AcDbEntity
  8
Calque 1
100
AcDbBlockReference
  2
block 14
 10
0.0
 20
0.0
 30
0.0
  0
SPLINE
  5
35F
330
336
100
AcDbEntity
  8
Calque 1
 62
   179
420
  1842203
370
     9
100
AcDbSpline
210
0.0
220
0.0
230
1.0
 70
    11
 71
     3
 72
    26
 73
    22
 74
     0
 42
0.0000000001
 43
0.0000000001
 40
0.0
 40
0.0
 40
0.0
 40
0.0
 40
1.0
 40
1.0
 40
1.0
 40
2.0
 40
2.0
 40
2.0
 40
3.0
 40
3.0
 40
3.0
 40
4.0
 40
4.0
 40
4.0
 40
5.0
 40
5.0
 40
5.0
 40
6.0
 40
6.0
 40
6.0
 40
7.0
 40
7.0
 40
7.0
 40
7.0
 10
35.72428571095953
 20
-244.0517587033334
 30
0.0
 10
35.72428571095953
 20
-244.0517587033334
 30
0.0
 10
35.72428571095953
 20
-215.4467675092017
 30
0.0
 10
35.72428571095953
 20
-215.4467675092017
 30
0.0
 10
35.72428571095953
 20
-215.4467675092017
 30
0.0
 10
35.72428571095953
 20
-229.5310161633007
 30
0.0
 10
35.72428571095953
 20
-229.5310161633007
 30
0.0
 10
35.72428571095953
 20
-229.5310161633007
 30
0.0
 10
51.63874254897565
 20
-215.4467675092017
 30
0.0
 10
51.63874254897565
 20
-215.4467675092017
 30
0.0
 10
51.63874254897565
 20
-215.4467675092017
 30
0.0
 10
35.72428571095953
 20
-229.5310161633007
 30
0.0
 10
35.72428571095953
 20
-229.5310161633007
 30
0.0
 10
35.72428571095953
 20
-229.5310161633007
 30
0.0
 10
51.71849656207246
 20
-244.0517587033334
 30
0.0
 10
51.71849656207246
 20
-244.0517587033334
 30
0.0
 10
51.71849656207246
 20
-244.0517587033334
 30
0.0
 10
35.72428571095953
 20
-229.5310161633007
 30
0.0
 10
35.72428571095953
 20
-229.5310161633007
 30
0.0
 10
35.72428571095953
 20
-229.5310161633007
 30
0.0
 10
35.72428571095953
 20
-244.0517587033334
 30
0.0
 10
35.72428571095953
 20
-244.0517587033334
 30
0.0
  0
SPLINE
  5
360
330
336
100
AcDbEntity
  8
Calque 1
 62
   179
420
  1842203
370
     9
100
AcDbSpline
210
0.0
220
0.0
230
1.0
 70
     8
 71
     3
 72
    29
 73
    25
 74
     0
 42
0.0000000001
 43
0.0000000001
 40
0.0
 40
0.0
 40
0.0
 40
0.0
 40
1.0
 40
1.0
 40
1.0
 40
2.0
 40
2.0
 40
2.0
 40
3.0
 40
3.0
 40
3.0
 40
4.0
 40
4.0
 40
4.0
 40
5.0
 40
5.0
 40
5.0
 40
6.0
 40
6.0
 40
6.0
 40
7.0
 40
7.0
 40
7.0
 40
8.0
 40
8.0
 40
8.0
 40
8.0
 10
162.2275863637611
 20
-244.0517587033334
 30
0.0
 10
161.147720471528
 20
-244.0517587033334
 30
0.0
 10
160.140546141988
 20
-243.8350620543576
 30
0.0
 10
159.2027905322708
 20
-243.401668756406
 30
0.0
 10
158.2650349225536
 20
-242.9682754584545
 30
0.0
 10
157.4451016561587
 20
-242.380886290722
 30
0.0
 10
156.7412681842071
 20
-241.642257331415
 30
0.0
 10
156.0376069671435
 20
-240.9039728818838
 30
0.0
 10
155.4810514243448
 20
-240.0423539326176
 30
0.0
 10
155.0703957715957
 20
-239.0577449933921
 30
0.0
 10
154.6595678639588
 20
-238.0731360541667
 30
0.0
 10
154.4549290571359
 20
-237.0175581011272
 30
0.0
 10
154.4549290571359
 20
-235.8927336831527
 30
0.0
 10
154.4549290571359
 20
-234.7675647554024
 30
0.0
 10
154.6595678639588
 20
-233.711986802363
 30
0.0
 10
155.0703957715957
 20
-232.7273778631375
 30
0.0
 10
155.4810514243448
 20
-231.7427689239121
 30
0.0
 10
156.0376069671435
 20
-230.8811499746459
 30
0.0
 10
156.7412681842071
 20
-230.1428655251147
 30
0.0
 10
157.4451016561587
 20
-229.4042365658077
 30
0.0
 10
158.2650349225536
 20
-228.8185699469542
 30
0.0
 10
159.2027905322708
 20
-228.3851766490026
 30
0.0
 10
160.140546141988
 20
-227.951783351051
 30
0.0
 10
161.147720471528
 20
-227.7350867020753
 30
0.0
 10
162.2275863637611
 20
-227.7350867020753
 30
0.0
  0
SPLINE
  5
361
330
336
100
AcDbEntity
  8
Calque 1
 62
   179
420
  1842203
370
     9
100
AcDbSpline
210
0.0
220
0.0
230
1.0
 70
     8
 71
     3
 72
    29
 73
    25
 74
     0
 42
0.0000000001
 43
0.0000000001
 40
0.0
 40
0.0
 40
0.0
 40
0.0
 40
1.0
 40
1.0
 40
1.0
 40
2.0
 40
2.0
 40
2.0
 40
3.0
 40
3.0
 40
3.0
 40
4.0
 40
4.0
 40
4.0
 40
5.0
 40
5.0
 40
5.0
 40
6.0
 40
6.0
 40
6.0
 40
7.0
 40
7.0
 40
7.0
 40
8.0
 40
8.0
 40
8.0
 40
8.0
 10
162.2275863637611
 20
-227.7350867020753
 30
0.0
 10
161.147720471528
 20
-227.7350867020753
 30
0.0
 10
160.140546141988
 20
-227.951783351051
 30
0.0
 10
159.2027905322708
 20
-228.3851766490026
 30
0.0
 10
158.2650349225536
 20
-228.8185699469542
 30
0.0
 10
157.4451016561587
 20
-229.4042365658077
 30
0.0
 10
156.7412681842071
 20
-230.1428655251147
 30
0.0
 10
156.0376069671435
 20
-230.8811499746459
 30
0.0
 10
155.4810514243448
 20
-231.7427689239121
 30
0.0
 10
155.0703957715957
 20
-232.7273778631375
 30
0.0
 10
154.6595678639588
 20
-233.711986802363
 30
0.0
 10
154.4549290571359
 20
-234.7675647554024
 30
0.0
 10
154.4549290571359
 20
-235.8927336831527
 30
0.0
 10
154.4549290571359
 20
-237.0175581011272
 30
0.0
 10
154.6595678639588
 20
-238.0731360541667
 30
0.0
 10
155.0703957715957
 20
-239.0577449933921
 30
0.0
 10
155.4810514243448
 20
-240.0423539326176
 30
0.0
 10
156.0376069671435
 20
-240.9039728818838
 30
0.0
 10
156.7412681842071
 20
-241.642257331415
 30
0.0
 10
157.4451016561587
 20
-242.380886290722
 30
0.0
 10
158.2650349225536
 20
-242.9682754584545
 30
0.0
 10
159.2027905322708
 20
-243.401668756406
 30
0.0
 10
160.140546141988
 20
-243.8350620543576
 30
0.0
 10
161.147720471528
 20
-244.0517587033334
 30
0.0
 10
162.2275863637611
 20
-244.0517587033334
 30
0.0
  0
INSERT
  5
363
330
336
100
AcDbEntity
  8
Calque 1
100
AcDbBlockReference
  2
block 15
 10
0.0
 20
0.0
 30
0.0
  0
INSERT
  5
36C
330
336
100
AcDbEntity
  8
Calque 1
100
AcDbBlockReference
  2
block 16
 10
0.0
 20
0.0
 30
0.0
  0
INSERT
  5
375
330
336
100
AcDbEntity
  8
Calque 1
100
AcDbBlockReference
  2
block 17
 10
0.0
 20
0.0
 30
0.0
  0
INSERT
  5
37E
330
336
100
AcDbEntity
  8
Calque 1
100
AcDbBlockReference
  2
block 18
 10
0.0
 20
0.0
 30
0.0
  0
SPLINE
  5
38B
330
336
100
AcDbEntity
  8
Calque 1
 62
   179
420
  1842203
370
     9
100
AcDbSpline
210
0.0
220
0.0
230
1.0
 70
     8
 71
     3
 72
    26
 73
    22
 74
     0
 42
0.0000000001
 43
0.0000000001
 40
0.0
 40
0.0
 40
0.0
 40
0.0
 40
1.0
 40
1.0
 40
1.0
 40
2.0
 40
2.0
 40
2.0
 40
3.0
 40
3.0
 40
3.0
 40
4.0
 40
4.0
 40
4.0
 40
5.0
 40
5.0
 40
5.0
 40
6.0
 40
6.0
 40
6.0
 40
7.0
 40
7.0
 40
7.0
 40
7.0
 10
141.5704356972471
 20
-242.6719970512698
 30
0.0
 10
142.4318823916254
 20
-243.525003256141
 30
0.0
 10
143.6157902361489
 20
-244.0517587033334
 30
0.0
 10
144.9245828743985
 20
-244.0517587033334
 30
0.0
 10
147.5559485419297
 20
-244.0517587033334
 30
0.0
 10
149.6881195443322
 20
-241.9195877009309
 30
0.0
 10
149.6881195443322
 20
-239.2882220333998
 30
0.0
 10
149.6881195443322
 20
-236.6554783267655
 30
0.0
 10
147.5559485419297
 20
-234.5250298732419
 30
0.0
 10
144.9245828743985
 20
-234.5250298732419
 30
0.0
 10
144.9245828743985
 20
-234.5250298732419
 30
0.0
 10
144.8813468975361
 20
-234.5250298732419
 30
0.0
 10
144.8813468975361
 20
-234.5250298732419
 30
0.0
 10
142.998773227698
 20
-234.5250298732419
 30
0.0
 10
141.4751787442394
 20
-233.0012631348955
 30
0.0
 10
141.4751787442394
 20
-231.1188617199452
 30
0.0
 10
141.4751787442394
 20
-229.2381828538739
 30
0.0
 10
142.998773227698
 20
-227.7144161155275
 30
0.0
 10
144.8813468975361
 20
-227.7144161155275
 30
0.0
 10
145.8191025072533
 20
-227.7144161155275
 30
0.0
 10
146.6684913594788
 20
-228.093721378679
 30
0.0
 10
147.2837858190507
 20
-228.7059152502688
 30
0.0
  0
SPLINE
  5
38C
330
336
100
AcDbEntity
  8
Calque 1
 62
   179
420
  1842203
370
     9
100
AcDbSpline
210
0.0
220
0.0
230
1.0
 70
    11
 71
     3
 72
    17
 73
    13
 74
     0
 42
0.0000000001
 43
0.0000000001
 40
0.0
 40
0.0
 40
0.0
 40
0.0
 40
1.0
 40
1.0
 40
1.0
 40
2.0
 40
2.0
 40
2.0
 40
3.0
 40
3.0
 40
3.0
 40
4.0
 40
4.0
 40
4.0
 40
4.0
 10
339.3069891620951
 20
-229.8031788861797
 30
0.0
 10
339.3069891620951
 20
-237.6745382435705
 30
0.0
 10
332.9246010556953
 20
-244.0603714477283
 30
0.0
 10
325.0511746396496
 20
-244.0603714477283
 30
0.0
 10
317.1746476356219
 20
-244.0603714477283
 30
0.0
 10
310.793982078101
 20
-237.6745382435705
 30
0.0
 10
310.793982078101
 20
-229.8031788861797
 30
0.0
 10
310.793982078101
 20
-221.9318195287888
 30
0.0
 10
317.1746476356219
 20
-215.5473643637342
 30
0.0
 10
325.0511746396496
 20
-215.5473643637342
 30
0.0
 10
332.9246010556953
 20
-215.5473643637342
 30
0.0
 10
339.3069891620951
 20
-221.9318195287888
 30
0.0
 10
339.3069891620951
 20
-229.8031788861797
 30
0.0
  0
SPLINE
  5
38D
330
336
100
AcDbEntity
  8
Calque 1
 62
   179
420
  1842203
370
     9
100
AcDbSpline
210
0.0
220
0.0
230
1.0
 70
    11
 71
     3
 72
    17
 73
    13
 74
     0
 42
0.0000000001
 43
0.0000000001
 40
0.0
 40
0.0
 40
0.0
 40
0.0
 40
1.0
 40
1.0
 40
1.0
 40
2.0
 40
2.0
 40
2.0
 40
3.0
 40
3.0
 40
3.0
 40
4.0
 40
4.0
 40
4.0
 40
4.0
 10
374.7415421516101
 20
-229.8031788861797
 30
0.0
 10
374.7415421516101
 20
-237.6745382435705
 30
0.0
 10
368.3591540452102
 20
-244.0603714477283
 30
0.0
 10
360.4860721389404
 20
-244.0603714477283
 30
0.0
 10
352.6109231740157
 20
-244.0603714477283
 30
0.0
 10
346.2302576164949
 20
-237.6745382435705
 30
0.0
 10
346.2302576164949
 20
-229.8031788861797
 30
0.0
 10
346.2302576164949
 20
-221.9318195287888
 30
0.0
 10
352.6109231740157
 20
-215.5473643637342
 30
0.0
 10
360.4860721389404
 20
-215.5473643637342
 30
0.0
 10
368.3591540452102
 20
-215.5473643637342
 30
0.0
 10
374.7415421516101
 20
-221.9318195287888
 30
0.0
 10
374.7415421516101
 20
-229.8031788861797
 30
0.0
  0
ENDBLK
  5
339
330
336
100
AcDbEntity
  8
0
100
AcDbBlockEnd
  0
BLOCK
  5
343
330
341
100
AcDbEntity
  8
0
100
AcDbBlockBegin
  2
block 12
 70
     0
 71
     0
 10
0.0
 20
0.0
 30
0.0
  3
block 12
  1

  0
SPLINE
  5
345
330
341
100
AcDbEntity
  8
Calque 1
 62
   179
420
  1842203
370
     9
100
AcDbSpline
210
0.0
220
0.0
230
1.0
 70
    11
 71
     3
 72
    17
 73
    13
 74
     0
 42
0.0000000001
 43
0.0000000001
 40
0.0
 40
0.0
 40
0.0
 40
0.0
 40
1.0
 40
1.0
 40
1.0
 40
2.0
 40
2.0
 40
2.0
 40
3.0
 40
3.0
 40
3.0
 40
4.0
 40
4.0
 40
4.0
 40
4.0
 10
115.5950876217675
 20
-235.8927336831527
 30
0.0
 10
115.5950876217675
 20
-240.4030556678762
 30
0.0
 10
111.9393221359065
 20
-244.0603714477283
 30
0.0
 10
107.429000151183
 20
-244.0603714477283
 30
0.0
 10
102.9186781664596
 20
-244.0603714477283
 30
0.0
 10
99.26463522947752
 20
-240.4030556678762
 30
0.0
 10
99.26463522947752
 20
-235.8927336831527
 30
0.0
 10
99.26463522947752
 20
-231.3837897375325
 30
0.0
 10
102.9186781664596
 20
-227.7281965065593
 30
0.0
 10
107.429000151183
 20
-227.7281965065593
 30
0.0
 10
111.9393221359065
 20
-227.7281965065593
 30
0.0
 10
115.5950876217675
 20
-231.3837897375325
 30
0.0
 10
115.5950876217675
 20
-235.8927336831527
 30
0.0
  0
POLYLINE
  5
346
330
341
100
AcDbEntity
  8
Calque 1
 62
   179
420
  1842203
370
     9
100
AcDb2dPolyline
 66
     1
 10
0.0
 20
0.0
 30
0.0
  0
VERTEX
  5
347
330
346
100
AcDbEntity
  8
Calque 1
 62
   179
420
  1842203
370
     9
100
AcDbVertex
100
AcDb2dVertex
 10
115.5950876217675
 20
-215.5142914252578
 30
0.0
  0
VERTEX
  5
348
330
346
100
AcDbEntity
  8
Calque 1
 62
   179
420
  1842203
370
     9
100
AcDbVertex
100
AcDb2dVertex
 10
115.5950876217675
 20
-244.0517587033334
 30
0.0
  0
SEQEND
  5
349
330
346
100
AcDbEntity
  8
Calque 1
370
     9
  0
ENDBLK
  5
344
330
341
100
AcDbEntity
  8
0
100
AcDbBlockEnd
  0
BLOCK
  5
34C
330
34A
100
AcDbEntity
  8
0
100
AcDbBlockBegin
  2
block 13
 70
     0
 71
     0
 10
0.0
 20
0.0
 30
0.0
  3
block 13
  1

  0
SPLINE
  5
34E
330
34A
100
AcDbEntity
  8
Calque 1
 62
   179
420
  1842203
370
     9
100
AcDbSpline
210
0.0
220
0.0
230
1.0
 70
    11
 71
     3
 72
    17
 73
    13
 74
     0
 42
0.0000000001
 43
0.0000000001
 40
0.0
 40
0.0
 40
0.0
 40
0.0
 40
1.0
 40
1.0
 40
1.0
 40
2.0
 40
2.0
 40
2.0
 40
3.0
 40
3.0
 40
3.0
 40
4.0
 40
4.0
 40
4.0
 40
4.0
 10
188.0902797425553
 20
-235.8979013297897
 30
0.0
 10
188.0902797425553
 20
-231.3872348352904
 30
0.0
 10
191.7460452284164
 20
-227.7299190554383
 30
0.0
 10
196.2563672131398
 20
-227.7299190554383
 30
0.0
 10
200.7668614527512
 20
-227.7299190554383
 30
0.0
 10
204.4224546837243
 20
-231.3872348352904
 30
0.0
 10
204.4224546837243
 20
-235.8979013297897
 30
0.0
 10
204.4224546837243
 20
-240.4065007656341
 30
0.0
 10
200.7668614527512
 20
-244.0620939966073
 30
0.0
 10
196.2563672131398
 20
-244.0620939966073
 30
0.0
 10
191.7460452284164
 20
-244.0620939966073
 30
0.0
 10
188.0902797425553
 20
-240.4065007656341
 30
0.0
 10
188.0902797425553
 20
-235.8979013297897
 30
0.0
  0
POLYLINE
  5
34F
330
34A
100
AcDbEntity
  8
Calque 1
 62
   179
420
  1842203
370
     9
100
AcDb2dPolyline
 66
     1
 10
0.0
 20
0.0
 30
0.0
  0
VERTEX
  5
350
330
34F
100
AcDbEntity
  8
Calque 1
 62
   179
420
  1842203
370
     9
100
AcDbVertex
100
AcDb2dVertex
 10
188.0902797425553
 20
-256.2759990779089
 30
0.0
  0
VERTEX
  5
351
330
34F
100
AcDbEntity
  8
Calque 1
 62
   179
420
  1842203
370
     9
100
AcDbVertex
100
AcDb2dVertex
 10
188.0902797425553
 20
-227.7368092509542
 30
0.0
  0
SEQEND
  5
352
330
34F
100
AcDbEntity
  8
Calque 1
370
     9
  0
ENDBLK
  5
34D
330
34A
100
AcDbEntity
  8
0
100
AcDbBlockEnd
  0
BLOCK
  5
355
330
353
100
AcDbEntity
  8
0
100
AcDbBlockBegin
  2
block 14
 70
     0
 71
     0
 10
0.0
 20
0.0
 30
0.0
  3
block 14
  1

  0
POLYLINE
  5
357
330
353
100
AcDbEntity
  8
Calque 1
 62
   179
420
  1842203
370
     9
100
AcDb2dPolyline
 66
     1
 10
0.0
 20
0.0
 30
0.0
  0
VERTEX
  5
358
330
357
100
AcDbEntity
  8
Calque 1
 62
   179
420
  1842203
370
     9
100
AcDbVertex
100
AcDb2dVertex
 10
94.49248581514898
 20
-227.7561017983988
 30
0.0
  0
VERTEX
  5
359
330
357
100
AcDbEntity
  8
Calque 1
 62
   179
420
  1842203
370
     9
100
AcDbVertex
100
AcDb2dVertex
 10
94.49248581514898
 20
-244.0517587033334
 30
0.0
  0
SEQEND
  5
35A
330
357
100
AcDbEntity
  8
Calque 1
370
     9
  0
POLYLINE
  5
35B
330
353
100
AcDbEntity
  8
Calque 1
 62
   179
420
  1842203
370
     9
100
AcDb2dPolyline
 66
     1
 10
0.0
 20
0.0
 30
0.0
  0
VERTEX
  5
35C
330
35B
100
AcDbEntity
  8
Calque 1
 62
   179
420
  1842203
370
     9
100
AcDbVertex
100
AcDb2dVertex
 10
94.49248581514898
 20
-219.2325854354258
 30
0.0
  0
VERTEX
  5
35D
330
35B
100
AcDbEntity
  8
Calque 1
 62
   179
420
  1842203
370
     9
100
AcDbVertex
100
AcDb2dVertex
 10
94.49248581514898
 20
-219.5429887434182
 30
0.0
  0
SEQEND
  5
35E
330
35B
100
AcDbEntity
  8
Calque 1
370
     9
  0
ENDBLK
  5
356
330
353
100
AcDbEntity
  8
0
100
AcDbBlockEnd
  0
BLOCK
  5
364
330
362
100
AcDbEntity
  8
0
100
AcDbBlockBegin
  2
block 15
 70
     0
 71
     0
 10
0.0
 20
0.0
 30
0.0
  3
block 15
  1

  0
SPLINE
  5
366
330
362
100
AcDbEntity
  8
Calque 1
 62
   179
420
  1842203
370
     9
100
AcDbSpline
210
0.0
220
0.0
230
1.0
 70
     8
 71
     3
 72
    62
 73
    58
 74
     0
 42
0.0000000001
 43
0.0000000001
 40
0.0
 40
0.0
 40
0.0
 40
0.0
 40
1.0
 40
1.0
 40
1.0
 40
2.0
 40
2.0
 40
2.0
 40
3.0
 40
3.0
 40
3.0
 40
4.0
 40
4.0
 40
4.0
 40
5.0
 40
5.0
 40
5.0
 40
6.0
 40
6.0
 40
6.0
 40
7.0
 40
7.0
 40
7.0
 40
8.0
 40
8.0
 40
8.0
 40
9.0
 40
9.0
 40
9.0
 40
10.0
 40
10.0
 40
10.0
 40
11.0
 40
11.0
 40
11.0
 40
12.0
 40
12.0
 40
12.0
 40
13.0
 40
13.0
 40
13.0
 40
14.0
 40
14.0
 40
14.0
 40
15.0
 40
15.0
 40
15.0
 40
16.0
 40
16.0
 40
16.0
 40
17.0
 40
17.0
 40
17.0
 40
18.0
 40
18.0
 40
18.0
 40
19.0
 40
19.0
 40
19.0
 40
19.0
 10
60.18465204737541
 20
-243.8836379327449
 30
0.0
 10
60.59186260236648
 20
-243.7795959804544
 30
0.0
 10
60.98891011897157
 20
-243.6393805017054
 30
0.0
 10
61.37200498965691
 20
-243.4623024769461
 30
0.0
 10
62.28891775793841
 20
-243.0395889820443
 30
0.0
 10
63.0897307317766
 20
-242.4570229511729
 30
0.0
 10
63.77099881341353
 20
-241.7170159527628
 30
0.0
 10
64.45226689505046
 20
-240.9766644445768
 30
0.0
 10
64.99314724305044
 20
-240.1116003975526
 30
0.0
 10
65.3917450536466
 20
-239.125613419224
 30
0.0
 10
65.79223766800965
 20
-238.1375593822406
 30
0.0
 10
65.99153657330774
 20
-237.0799143705463
 30
0.0
 10
65.99153657330774
 20
-235.9516448548139
 30
0.0
 10
65.99153657330774
 20
-234.8230308293056
 30
0.0
 10
65.79223766800965
 20
-233.7588401318713
 30
0.0
 10
65.3917450536466
 20
-232.760450801614
 30
0.0
 10
64.99314724305044
 20
-231.7599944127019
 30
0.0
 10
64.45226689505046
 20
-230.8897627190408
 30
0.0
 10
63.77099881341353
 20
-230.1497557206306
 30
0.0
 10
63.0897307317766
 20
-229.4097487222204
 30
0.0
 10
62.28891775793841
 20
-228.8220150447122
 30
0.0
 10
61.37200498965691
 20
-228.3868991978816
 30
0.0
 10
60.4549199664875
 20
-227.951783351051
 30
0.0
 10
59.46876073327097
 20
-227.7350867020753
 30
0.0
 10
58.41128797646464
 20
-227.7350867020753
 30
0.0
 10
57.00034818969142
 20
-227.7350867020753
 30
0.0
 10
55.71756603951439
 20
-228.1164590238816
 30
0.0
 10
54.56655887857939
 20
-228.8809262163733
 30
0.0
 10
53.41555171764439
 20
-229.643670859986
 30
0.0
 10
52.49863894936288
 20
-230.6386150924854
 30
0.0
 10
51.81564831884698
 20
-231.8605912672344
 30
0.0
 10
52.49863894936288
 20
-230.6386150924854
 30
0.0
 10
53.41555171764439
 20
-229.643670859986
 30
0.0
 10
54.56655887857939
 20
-228.8809262163733
 30
0.0
 10
55.71756603951439
 20
-228.1164590238816
 30
0.0
 10
57.00034818969142
 20
-227.7350867020753
 30
0.0
 10
58.41128797646464
 20
-227.7350867020753
 30
0.0
 10
59.46876073327097
 20
-227.7350867020753
 30
0.0
 10
60.4549199664875
 20
-227.951783351051
 30
0.0
 10
61.37200498965691
 20
-228.3868991978816
 30
0.0
 10
62.28891775793841
 20
-228.8220150447122
 30
0.0
 10
63.0897307317766
 20
-229.4097487222204
 30
0.0
 10
63.77099881341353
 20
-230.1497557206306
 30
0.0
 10
64.45226689505046
 20
-230.8897627190408
 30
0.0
 10
64.99314724305044
 20
-231.7599944127019
 30
0.0
 10
65.3917450536466
 20
-232.760450801614
 30
0.0
 10
65.79223766800965
 20
-233.7588401318713
 30
0.0
 10
65.99153657330774
 20
-234.8230308293056
 30
0.0
 10
65.99153657330774
 20
-235.9516448548139
 30
0.0
 10
65.99153657330774
 20
-237.0799143705463
 30
0.0
 10
65.79223766800965
 20
-238.1375593822406
 30
0.0
 10
65.3917450536466
 20
-239.125613419224
 30
0.0
 10
64.99314724305044
 20
-240.1116003975526
 30
0.0
 10
64.45226689505046
 20
-240.9766644445768
 30
0.0
 10
63.77099881341353
 20
-241.7170159527628
 30
0.0
 10
63.0897307317766
 20
-242.4570229511729
 30
0.0
 10
62.28891775793841
 20
-243.0395889820443
 30
0.0
 10
61.37200498965691
 20
-243.4623024769461
 30
0.0
  0
POLYLINE
  5
367
330
362
100
AcDbEntity
  8
Calque 1
 62
   179
420
  1842203
370
     9
100
AcDb2dPolyline
 66
     1
 10
0.0
 20
0.0
 30
0.0
  0
VERTEX
  5
368
330
367
100
AcDbEntity
  8
Calque 1
 62
   179
420
  1842203
370
     9
100
AcDbVertex
100
AcDb2dVertex
 10
65.95691334084022
 20
-236.2324203220878
 30
0.0
  0
VERTEX
  5
442
330
367
100
AcDbEntity
  8
0
100
AcDbVertex
100
AcDb2dVertex
 10
65.95691334084022
 20
-236.2324203220878
 30
0.0
  0
SEQEND
  5
369
330
367
100
AcDbEntity
  8
Calque 1
370
     9
  0
SPLINE
  5
36A
330
362
100
AcDbEntity
  8
Calque 1
 62
   179
420
  1842203
370
     9
100
AcDbSpline
210
0.0
220
0.0
230
1.0
 70
    11
 71
     3
 72
    17
 73
    13
 74
     0
 42
0.0000000001
 43
0.0000000001
 40
0.0
 40
0.0
 40
0.0
 40
0.0
 40
1.0
 40
1.0
 40
1.0
 40
2.0
 40
2.0
 40
2.0
 40
3.0
 40
3.0
 40
3.0
 40
4.0
 40
4.0
 40
4.0
 40
4.0
 10
54.24926537507112
 20
-239.3836512412953
 30
0.0
 10
54.24926537507112
 20
-236.7991389032724
 30
0.0
 10
56.34164549836915
 20
-234.7069310348623
 30
0.0
 10
58.92443528751303
 20
-234.7069310348623
 30
0.0
 10
61.5072250766569
 20
-234.7069310348623
 30
0.0
 10
63.59943294506704
 20
-236.7991389032724
 30
0.0
 10
63.59943294506704
 20
-239.3836512412953
 30
0.0
 10
63.59943294506704
 20
-241.9647184815602
 30
0.0
 10
61.5072250766569
 20
-244.0569263499704
 30
0.0
 10
58.92443528751303
 20
-244.0569263499704
 30
0.0
 10
56.34164549836915
 20
-244.0569263499704
 30
0.0
 10
54.24926537507112
 20
-241.9647184815602
 30
0.0
 10
54.24926537507112
 20
-239.3836512412953
 30
0.0
  0
ENDBLK
  5
365
330
362
100
AcDbEntity
  8
0
100
AcDbBlockEnd
  0
BLOCK
  5
36D
330
36B
100
AcDbEntity
  8
0
100
AcDbBlockBegin
  2
block 16
 70
     0
 71
     0
 10
0.0
 20
0.0
 30
0.0
  3
block 16
  1

  0
SPLINE
  5
36F
330
36B
100
AcDbEntity
  8
Calque 1
 62
   179
420
  1842203
370
     9
100
AcDbSpline
210
0.0
220
0.0
230
1.0
 70
     8
 71
     3
 72
    62
 73
    58
 74
     0
 42
0.0000000001
 43
0.0000000001
 40
0.0
 40
0.0
 40
0.0
 40
0.0
 40
1.0
 40
1.0
 40
1.0
 40
2.0
 40
2.0
 40
2.0
 40
3.0
 40
3.0
 40
3.0
 40
4.0
 40
4.0
 40
4.0
 40
5.0
 40
5.0
 40
5.0
 40
6.0
 40
6.0
 40
6.0
 40
7.0
 40
7.0
 40
7.0
 40
8.0
 40
8.0
 40
8.0
 40
9.0
 40
9.0
 40
9.0
 40
10.0
 40
10.0
 40
10.0
 40
11.0
 40
11.0
 40
11.0
 40
12.0
 40
12.0
 40
12.0
 40
13.0
 40
13.0
 40
13.0
 40
14.0
 40
14.0
 40
14.0
 40
15.0
 40
15.0
 40
15.0
 40
16.0
 40
16.0
 40
16.0
 40
17.0
 40
17.0
 40
17.0
 40
18.0
 40
18.0
 40
18.0
 40
19.0
 40
19.0
 40
19.0
 40
19.0
 10
215.0102736232679
 20
-227.8963172771479
 30
0.0
 10
214.602890813389
 20
-228.0003592294383
 30
0.0
 10
214.2060155516718
 20
-228.1405747081873
 30
0.0
 10
213.8229206809865
 20
-228.3176527329466
 30
0.0
 10
212.906007912705
 20
-228.7407107376243
 30
0.0
 10
212.1067452328579
 20
-229.3229322587198
 30
0.0
 10
211.4256494061088
 20
-230.06293925713
 30
0.0
 10
210.7426587755929
 20
-230.8032907653159
 30
0.0
 10
210.2017784275929
 20
-231.6683548123401
 30
0.0
 10
209.8030083621089
 20
-232.6546863004446
 30
0.0
 10
209.4026880026337
 20
-233.641017788549
 30
0.0
 10
209.2032168424477
 20
-234.7000408393464
 30
0.0
 10
209.2032168424477
 20
-235.8286548648547
 30
0.0
 10
209.2032168424477
 20
-236.9569243805871
 30
0.0
 10
209.4026880026337
 20
-238.0211150780215
 30
0.0
 10
209.8030083621089
 20
-239.0195044082787
 30
0.0
 10
210.2017784275929
 20
-240.0199607971908
 30
0.0
 10
210.7426587755929
 20
-240.8881254321972
 30
0.0
 10
211.4256494061088
 20
-241.6301994892621
 30
0.0
 10
212.1067452328579
 20
-242.3702064876723
 30
0.0
 10
212.906007912705
 20
-242.9579401651806
 30
0.0
 10
213.8229206809865
 20
-243.3930560120111
 30
0.0
 10
214.739833449268
 20
-243.8281718588417
 30
0.0
 10
215.7278874862514
 20
-244.0448685078175
 30
0.0
 10
216.7853602430577
 20
-244.0448685078175
 30
0.0
 10
218.1963000298309
 20
-244.0448685078175
 30
0.0
 10
219.477359631129
 20
-243.6634961860111
 30
0.0
 10
220.6281945371761
 20
-242.8990289935194
 30
0.0
 10
221.7809242469901
 20
-242.1362843499067
 30
0.0
 10
222.6980092701595
 20
-241.1413401174074
 30
0.0
 10
223.3792773517964
 20
-239.9193639426584
 30
0.0
 10
222.6980092701595
 20
-241.1413401174074
 30
0.0
 10
221.7809242469901
 20
-242.1362843499067
 30
0.0
 10
220.6281945371761
 20
-242.8990289935194
 30
0.0
 10
219.477359631129
 20
-243.6634961860111
 30
0.0
 10
218.1963000298309
 20
-244.0448685078175
 30
0.0
 10
216.7853602430577
 20
-244.0448685078175
 30
0.0
 10
215.7278874862514
 20
-244.0448685078175
 30
0.0
 10
214.739833449268
 20
-243.8281718588417
 30
0.0
 10
213.8229206809865
 20
-243.3930560120111
 30
0.0
 10
212.906007912705
 20
-242.9579401651806
 30
0.0
 10
212.1067452328579
 20
-242.3702064876723
 30
0.0
 10
211.4256494061088
 20
-241.6301994892621
 30
0.0
 10
210.7426587755929
 20
-240.8881254321972
 30
0.0
 10
210.2017784275929
 20
-240.0199607971908
 30
0.0
 10
209.8030083621089
 20
-239.0195044082787
 30
0.0
 10
209.4026880026337
 20
-238.0211150780215
 30
0.0
 10
209.2032168424477
 20
-236.9569243805871
 30
0.0
 10
209.2032168424477
 20
-235.8286548648547
 30
0.0
 10
209.2032168424477
 20
-234.7000408393464
 30
0.0
 10
209.4026880026337
 20
-233.641017788549
 30
0.0
 10
209.8030083621089
 20
-232.6546863004446
 30
0.0
 10
210.2017784275929
 20
-231.6683548123401
 30
0.0
 10
210.7426587755929
 20
-230.8032907653159
 30
0.0
 10
211.4256494061088
 20
-230.06293925713
 30
0.0
 10
212.1067452328579
 20
-229.3229322587198
 30
0.0
 10
212.906007912705
 20
-228.7407107376243
 30
0.0
 10
213.8229206809865
 20
-228.3176527329466
 30
0.0
  0
POLYLINE
  5
370
330
36B
100
AcDbEntity
  8
Calque 1
 62
   179
420
  1842203
370
     9
100
AcDb2dPolyline
 66
     1
 10
0.0
 20
0.0
 30
0.0
  0
VERTEX
  5
371
330
370
100
AcDbEntity
  8
Calque 1
 62
   179
420
  1842203
370
     9
100
AcDbVertex
100
AcDb2dVertex
 10
209.2380123298032
 20
-235.545812338926
 30
0.0
  0
VERTEX
  5
443
330
370
100
AcDbEntity
  8
0
100
AcDbVertex
100
AcDb2dVertex
 10
209.2380123298032
 20
-235.545812338926
 30
0.0
  0
SEQEND
  5
372
330
370
100
AcDbEntity
  8
Calque 1
370
     9
  0
SPLINE
  5
373
330
36B
100
AcDbEntity
  8
Calque 1
 62
   179
420
  1842203
370
     9
100
AcDbSpline
210
0.0
220
0.0
230
1.0
 70
    11
 71
     3
 72
    17
 73
    13
 74
     0
 42
0.0000000001
 43
0.0000000001
 40
0.0
 40
0.0
 40
0.0
 40
0.0
 40
1.0
 40
1.0
 40
1.0
 40
2.0
 40
2.0
 40
2.0
 40
3.0
 40
3.0
 40
3.0
 40
4.0
 40
4.0
 40
4.0
 40
4.0
 10
220.9454880406844
 20
-232.3963039685974
 30
0.0
 10
220.9454880406844
 20
-234.9808163066203
 30
0.0
 10
218.8550027211532
 20
-237.0713016261514
 30
0.0
 10
216.2722129320093
 20
-237.0713016261514
 30
0.0
 10
213.6877005939865
 20
-237.0713016261514
 30
0.0
 10
211.5972152744553
 20
-234.9808163066203
 30
0.0
 10
211.5972152744553
 20
-232.3963039685974
 30
0.0
 10
211.5972152744553
 20
-229.8135141794535
 30
0.0
 10
213.6877005939865
 20
-227.7213063110434
 30
0.0
 10
216.2722129320093
 20
-227.7213063110434
 30
0.0
 10
218.8550027211532
 20
-227.7213063110434
 30
0.0
 10
220.9454880406844
 20
-229.8135141794535
 30
0.0
 10
220.9454880406844
 20
-232.3963039685974
 30
0.0
  0
ENDBLK
  5
36E
330
36B
100
AcDbEntity
  8
0
100
AcDbBlockEnd
  0
BLOCK
  5
376
330
374
100
AcDbEntity
  8
0
100
AcDbBlockBegin
  2
block 17
 70
     0
 71
     0
 10
0.0
 20
0.0
 30
0.0
  3
block 17
  1

  0
SPLINE
  5
378
330
374
100
AcDbEntity
  8
Calque 1
 62
   179
420
  1842203
370
     9
100
AcDbSpline
210
0.0
220
0.0
230
1.0
 70
     8
 71
     3
 72
    62
 73
    58
 74
     0
 42
0.0000000001
 43
0.0000000001
 40
0.0
 40
0.0
 40
0.0
 40
0.0
 40
1.0
 40
1.0
 40
1.0
 40
2.0
 40
2.0
 40
2.0
 40
3.0
 40
3.0
 40
3.0
 40
4.0
 40
4.0
 40
4.0
 40
5.0
 40
5.0
 40
5.0
 40
6.0
 40
6.0
 40
6.0
 40
7.0
 40
7.0
 40
7.0
 40
8.0
 40
8.0
 40
8.0
 40
9.0
 40
9.0
 40
9.0
 40
10.0
 40
10.0
 40
10.0
 40
11.0
 40
11.0
 40
11.0
 40
12.0
 40
12.0
 40
12.0
 40
13.0
 40
13.0
 40
13.0
 40
14.0
 40
14.0
 40
14.0
 40
15.0
 40
15.0
 40
15.0
 40
16.0
 40
16.0
 40
16.0
 40
17.0
 40
17.0
 40
17.0
 40
18.0
 40
18.0
 40
18.0
 40
19.0
 40
19.0
 40
19.0
 40
19.0
 10
251.7119335681612
 20
-243.0047934946888
 30
0.0
 10
250.1085850716058
 20
-242.2647864962787
 30
0.0
 10
248.7114256758645
 20
-241.2488271674558
 30
0.0
 10
247.518905086946
 20
-239.953814920238
 30
0.0
 10
246.3262122431397
 20
-238.659147182796
 30
0.0
 10
245.3832889867856
 20
-237.1495053452572
 30
0.0
 10
244.684623161471
 20
-235.4228223489667
 30
0.0
 10
243.9861295910442
 20
-233.6982064113311
 30
0.0
 10
243.6359354039474
 20
-231.8485334250815
 30
0.0
 10
243.6359354039474
 20
-229.8758704488726
 30
0.0
 10
243.6359354039474
 20
-227.9032074726638
 30
0.0
 10
243.9861295910442
 20
-226.0449217420193
 30
0.0
 10
244.684623161471
 20
-224.2979126689569
 30
0.0
 10
245.3832889867856
 20
-222.5505590861187
 30
0.0
 10
246.3262122431397
 20
-221.0319599944092
 30
0.0
 10
247.518905086946
 20
-219.7372922569672
 30
0.0
 10
248.7114256758645
 20
-218.4422800097494
 30
0.0
 10
250.1085850716058
 20
-217.4142628387736
 30
0.0
 10
251.7119335681612
 20
-216.6549632929189
 30
0.0
 10
253.3152820647166
 20
-215.8939411981851
 30
0.0
 10
255.038519963249
 20
-215.5142914252578
 30
0.0
 10
256.8899154983776
 20
-215.5142914252578
 30
0.0
 10
259.3545384344234
 20
-215.5142914252578
 30
0.0
 10
261.5941964868743
 20
-216.1819513707507
 30
0.0
 10
263.6085451459545
 20
-217.5165822421851
 30
0.0
 10
265.619104197501
 20
-218.8512131136195
 30
0.0
 10
267.2227972038321
 20
-220.5882314031837
 30
0.0
 10
268.4151455378627
 20
-222.7255700522232
 30
0.0
 10
267.2227972038321
 20
-220.5882314031837
 30
0.0
 10
265.619104197501
 20
-218.8512131136195
 30
0.0
 10
263.6085451459545
 20
-217.5165822421851
 30
0.0
 10
261.5941964868743
 20
-216.1819513707507
 30
0.0
 10
259.3545384344234
 20
-215.5142914252578
 30
0.0
 10
256.8899154983776
 20
-215.5142914252578
 30
0.0
 10
255.038519963249
 20
-215.5142914252578
 30
0.0
 10
253.3152820647166
 20
-215.8939411981851
 30
0.0
 10
251.7119335681612
 20
-216.6549632929189
 30
0.0
 10
250.1085850716058
 20
-217.4142628387736
 30
0.0
 10
248.7114256758645
 20
-218.4422800097494
 30
0.0
 10
247.518905086946
 20
-219.7372922569672
 30
0.0
 10
246.3262122431397
 20
-221.0319599944092
 30
0.0
 10
245.3832889867856
 20
-222.5505590861187
 30
0.0
 10
244.684623161471
 20
-224.2979126689569
 30
0.0
 10
243.9861295910442
 20
-226.0449217420193
 30
0.0
 10
243.6359354039474
 20
-227.9032074726638
 30
0.0
 10
243.6359354039474
 20
-229.8758704488726
 30
0.0
 10
243.6359354039474
 20
-231.8485334250815
 30
0.0
 10
243.9861295910442
 20
-233.6982064113311
 30
0.0
 10
244.684623161471
 20
-235.4228223489667
 30
0.0
 10
245.3832889867856
 20
-237.1495053452572
 30
0.0
 10
246.3262122431397
 20
-238.659147182796
 30
0.0
 10
247.518905086946
 20
-239.953814920238
 30
0.0
 10
248.7114256758645
 20
-241.2488271674558
 30
0.0
 10
250.1085850716058
 20
-242.2647864962787
 30
0.0
 10
251.7119335681612
 20
-243.0047934946888
 30
0.0
 10
252.3830386114122
 20
-243.3151968026812
 30
0.0
 10
253.076192280314
 20
-243.5577316848417
 30
0.0
 10
253.7869159477816
 20
-243.7399773562379
 30
0.0
  0
POLYLINE
  5
379
330
374
100
AcDbEntity
  8
Calque 1
 62
   179
420
  1842203
370
     9
100
AcDb2dPolyline
 66
     1
 10
0.0
 20
0.0
 30
0.0
  0
VERTEX
  5
37A
330
379
100
AcDbEntity
  8
Calque 1
 62
   179
420
  1842203
370
     9
100
AcDbVertex
100
AcDb2dVertex
 10
243.6982916733665
 20
-230.3698974673644
 30
0.0
  0
VERTEX
  5
444
330
379
100
AcDbEntity
  8
0
100
AcDbVertex
100
AcDb2dVertex
 10
243.6982916733665
 20
-230.3698974673644
 30
0.0
  0
SEQEND
  5
37B
330
379
100
AcDbEntity
  8
Calque 1
370
     9
  0
SPLINE
  5
37C
330
374
100
AcDbEntity
  8
Calque 1
 62
   179
420
  1842203
370
     9
100
AcDbSpline
210
0.0
220
0.0
230
1.0
 70
    11
 71
     3
 72
    17
 73
    13
 74
     0
 42
0.0000000001
 43
0.0000000001
 40
0.0
 40
0.0
 40
0.0
 40
0.0
 40
1.0
 40
1.0
 40
1.0
 40
2.0
 40
2.0
 40
2.0
 40
3.0
 40
3.0
 40
3.0
 40
4.0
 40
4.0
 40
4.0
 40
4.0
 10
264.1614833361074
 20
-235.8734411357081
 30
0.0
 10
264.1614833361074
 20
-231.3596740532267
 30
0.0
 10
260.5055455953584
 20
-227.7023582733746
 30
0.0
 10
255.991778512877
 20
-227.7023582733746
 30
0.0
 10
251.4762888815166
 20
-227.7023582733746
 30
0.0
 10
247.8188008467766
 20
-231.3596740532267
 30
0.0
 10
247.8188008467766
 20
-235.8734411357081
 30
0.0
 10
247.8188008467766
 20
-240.3892752768443
 30
0.0
 10
251.4762888815166
 20
-244.0448685078175
 30
0.0
 10
255.991778512877
 20
-244.0448685078175
 30
0.0
 10
260.5055455953584
 20
-244.0448685078175
 30
0.0
 10
264.1614833361074
 20
-240.3872082181896
 30
0.0
 10
264.1614833361074
 20
-235.8734411357081
 30
0.0
  0
ENDBLK
  5
377
330
374
100
AcDbEntity
  8
0
100
AcDbBlockEnd
  0
BLOCK
  5
37F
330
37D
100
AcDbEntity
  8
0
100
AcDbBlockBegin
  2
block 18
 70
     0
 71
     0
 10
0.0
 20
0.0
 30
0.0
  3
block 18
  1

  0
INSERT
  5
382
330
37D
100
AcDbEntity
  8
Calque 1
100
AcDbBlockReference
  2
block 19
 10
0.0
 20
0.0
 30
0.0
  0
SPLINE
  5
38A
330
37D
100
AcDbEntity
  8
Calque 1
 62
   179
420
  1842203
370
     9
100
AcDbSpline
210
0.0
220
0.0
230
1.0
 70
     8
 71
     3
 72
     8
 73
     4
 74
     0
 42
0.0000000001
 43
0.0000000001
 40
0.0
 40
0.0
 40
0.0
 40
0.0
 40
1.0
 40
1.0
 40
1.0
 40
1.0
 10
84.95335463312887
 20
-219.2325854354258
 30
0.0
 10
84.95335463312887
 20
-221.7981497357799
 30
0.0
 10
82.87509941063848
 20
-223.8765772131582
 30
0.0
 10
80.30953511028441
 20
-223.8765772131582
 30
0.0
  0
ENDBLK
  5
380
330
37D
100
AcDbEntity
  8
0
100
AcDbBlockEnd
  0
BLOCK
  5
383
330
381
100
AcDbEntity
  8
0
100
AcDbBlockBegin
  2
block 19
 70
     0
 71
     0
 10
0.0
 20
0.0
 30
0.0
  3
block 19
  1

  0
SPLINE
  5
385
330
381
100
AcDbEntity
  8
Calque 1
 62
   179
420
  1842203
370
     9
100
AcDbSpline
210
0.0
220
0.0
230
1.0
 70
     8
 71
     3
 72
    62
 73
    58
 74
     0
 42
0.0000000001
 43
0.0000000001
 40
0.0
 40
0.0
 40
0.0
 40
0.0
 40
1.0
 40
1.0
 40
1.0
 40
2.0
 40
2.0
 40
2.0
 40
3.0
 40
3.0
 40
3.0
 40
4.0
 40
4.0
 40
4.0
 40
5.0
 40
5.0
 40
5.0
 40
6.0
 40
6.0
 40
6.0
 40
7.0
 40
7.0
 40
7.0
 40
8.0
 40
8.0
 40
8.0
 40
9.0
 40
9.0
 40
9.0
 40
10.0
 40
10.0
 40
10.0
 40
11.0
 40
11.0
 40
11.0
 40
12.0
 40
12.0
 40
12.0
 40
13.0
 40
13.0
 40
13.0
 40
14.0
 40
14.0
 40
14.0
 40
15.0
 40
15.0
 40
15.0
 40
16.0
 40
16.0
 40
16.0
 40
17.0
 40
17.0
 40
17.0
 40
18.0
 40
18.0
 40
18.0
 40
19.0
 40
19.0
 40
19.0
 40
19.0
 10
81.35133267229203
 20
-227.9083751193007
 30
0.0
 10
80.94222731353408
 20
-228.0124170715912
 30
0.0
 10
80.54707460069586
 20
-228.151254511237
 30
0.0
 10
80.16225718113155
 20
-228.3279880262205
 30
0.0
 10
79.24534441285005
 20
-228.7524240700013
 30
0.0
 10
78.44625398789083
 20
-229.3332675519937
 30
0.0
 10
77.76498590625391
 20
-230.0736190601797
 30
0.0
 10
77.08199527573801
 20
-230.8153486074688
 30
0.0
 10
76.542837476617
 20
-231.678690105614
 30
0.0
 10
76.14251711714185
 20
-232.6667441425974
 30
0.0
 10
75.7420245027788
 20
-233.6530756307018
 30
0.0
 10
75.54272559748073
 20
-234.7120986814993
 30
0.0
 10
75.54272559748073
 20
-235.8407127070075
 30
0.0
 10
75.54272559748073
 20
-236.96898222274
 30
0.0
 10
75.7420245027788
 20
-238.0335174299501
 30
0.0
 10
76.14251711714185
 20
-239.0319067602074
 30
0.0
 10
76.542837476617
 20
-240.0302960904647
 30
0.0
 10
77.08199527573801
 20
-240.9005277841258
 30
0.0
 10
77.76498590625391
 20
-241.640534782536
 30
0.0
 10
78.44625398789083
 20
-242.3826088396009
 30
0.0
 10
79.24534441285005
 20
-242.9703425171092
 30
0.0
 10
80.16225718113155
 20
-243.403391305285
 30
0.0
 10
81.07916994941306
 20
-243.8402297009945
 30
0.0
 10
82.06722398639647
 20
-244.0569263499704
 30
0.0
 10
83.1246967432028
 20
-244.0569263499704
 30
0.0
 10
84.53563652997602
 20
-244.0569263499704
 30
0.0
 10
85.81669613127407
 20
-243.675554028164
 30
0.0
 10
86.96942584108805
 20
-242.9110868356723
 30
0.0
 10
88.12043300202305
 20
-242.1469641529564
 30
0.0
 10
89.03734577030455
 20
-241.1533979595602
 30
0.0
 10
89.71861385194147
 20
-239.9314217848112
 30
0.0
 10
89.03734577030455
 20
-241.1533979595602
 30
0.0
 10
88.12043300202305
 20
-242.1469641529564
 30
0.0
 10
86.96942584108805
 20
-242.9110868356723
 30
0.0
 10
85.81669613127407
 20
-243.675554028164
 30
0.0
 10
84.53563652997602
 20
-244.0569263499704
 30
0.0
 10
83.1246967432028
 20
-244.0569263499704
 30
0.0
 10
82.06722398639647
 20
-244.0569263499704
 30
0.0
 10
81.07916994941306
 20
-243.8402297009945
 30
0.0
 10
80.16225718113155
 20
-243.403391305285
 30
0.0
 10
79.24534441285005
 20
-242.9703425171092
 30
0.0
 10
78.44625398789083
 20
-242.3826088396009
 30
0.0
 10
77.76498590625391
 20
-241.640534782536
 30
0.0
 10
77.08199527573801
 20
-240.9005277841258
 30
0.0
 10
76.542837476617
 20
-240.0302960904647
 30
0.0
 10
76.14251711714185
 20
-239.0319067602074
 30
0.0
 10
75.7420245027788
 20
-238.0335174299501
 30
0.0
 10
75.54272559748073
 20
-236.96898222274
 30
0.0
 10
75.54272559748073
 20
-235.8407127070075
 30
0.0
 10
75.54272559748073
 20
-234.7120986814993
 30
0.0
 10
75.7420245027788
 20
-233.6530756307018
 30
0.0
 10
76.14251711714185
 20
-232.6667441425974
 30
0.0
 10
76.542837476617
 20
-231.678690105614
 30
0.0
 10
77.08199527573801
 20
-230.8153486074688
 30
0.0
 10
77.76498590625391
 20
-230.0736190601797
 30
0.0
 10
78.44625398789083
 20
-229.3332675519937
 30
0.0
 10
79.24534441285005
 20
-228.7524240700013
 30
0.0
 10
80.16225718113155
 20
-228.3279880262205
 30
0.0
  0
POLYLINE
  5
386
330
381
100
AcDbEntity
  8
Calque 1
 62
   179
420
  1842203
370
     9
100
AcDb2dPolyline
 66
     1
 10
0.0
 20
0.0
 30
0.0
  0
VERTEX
  5
387
330
386
100
AcDbEntity
  8
Calque 1
 62
   179
420
  1842203
370
     9
100
AcDbVertex
100
AcDb2dVertex
 10
75.57907137882722
 20
-235.5578701810789
 30
0.0
  0
VERTEX
  5
445
330
386
100
AcDbEntity
  8
0
100
AcDbVertex
100
AcDb2dVertex
 10
75.57907137882722
 20
-235.5578701810789
 30
0.0
  0
SEQEND
  5
388
330
386
100
AcDbEntity
  8
Calque 1
370
     9
  0
SPLINE
  5
389
330
381
100
AcDbEntity
  8
Calque 1
 62
   179
420
  1842203
370
     9
100
AcDbSpline
210
0.0
220
0.0
230
1.0
 70
    11
 71
     3
 72
    17
 73
    13
 74
     0
 42
0.0000000001
 43
0.0000000001
 40
0.0
 40
0.0
 40
0.0
 40
0.0
 40
1.0
 40
1.0
 40
1.0
 40
2.0
 40
2.0
 40
2.0
 40
3.0
 40
3.0
 40
3.0
 40
4.0
 40
4.0
 40
4.0
 40
4.0
 10
87.28482454082945
 20
-232.4083618107503
 30
0.0
 10
87.28482454082945
 20
-234.9911515998942
 30
0.0
 10
85.19433922129829
 20
-237.0833594683043
 30
0.0
 10
82.6115494321544
 20
-237.0833594683043
 30
0.0
 10
80.02875964301053
 20
-237.0833594683043
 30
0.0
 10
77.9365517746004
 20
-234.9911515998942
 30
0.0
 10
77.9365517746004
 20
-232.4083618107503
 30
0.0
 10
77.9365517746004
 20
-229.8255720216064
 30
0.0
 10
80.02875964301053
 20
-227.7333641531963
 30
0.0
 10
82.6115494321544
 20
-227.7333641531963
 30
0.0
 10
85.19433922129829
 20
-227.7333641531963
 30
0.0
 10
87.28482454082945
 20
-229.8255720216064
 30
0.0
 10
87.28482454082945
 20
-232.4083618107503
 30
0.0
  0
ENDBLK
  5
384
330
381
100
AcDbEntity
  8
0
100
AcDbBlockEnd
  0
BLOCK
  5
390
330
38E
100
AcDbEntity
  8
0
100
AcDbBlockBegin
  2
block 20
 70
     0
 71
     0
 10
0.0
 20
0.0
 30
0.0
  3
block 20
  1

  0
SPLINE
  5
392
330
38E
100
AcDbEntity
  8
Calque 1
 62
   179
420
  1842203
370
     9
100
AcDbSpline
210
0.0
220
0.0
230
1.0
 70
    11
 71
     3
 72
    17
 73
    13
 74
     0
 42
0.0000000001
 43
0.0000000001
 40
0.0
 40
0.0
 40
0.0
 40
0.0
 40
1.0
 40
1.0
 40
1.0
 40
2.0
 40
2.0
 40
2.0
 40
3.0
 40
3.0
 40
3.0
 40
4.0
 40
4.0
 40
4.0
 40
4.0
 10
184.1608012398242
 20
-114.4602724202949
 30
0.0
 10
185.0570434215579
 20
-114.4602724202949
 30
0.0
 10
185.7839590484879
 20
-115.1868435374491
 30
0.0
 10
185.7839590484879
 20
-116.0832579740707
 30
0.0
 10
185.7839590484879
 20
-116.9796724106923
 30
0.0
 10
185.0570434215579
 20
-117.7062435278464
 30
0.0
 10
184.1608012398242
 20
-117.7062435278464
 30
0.0
 10
183.2647313129784
 20
-117.7062435278464
 30
0.0
 10
182.5379879409364
 20
-116.9796724106923
 30
0.0
 10
182.5379879409364
 20
-116.0832579740707
 30
0.0
 10
182.5379879409364
 20
-115.1868435374491
 30
0.0
 10
183.2647313129784
 20
-114.4602724202949
 30
0.0
 10
184.1608012398242
 20
-114.4602724202949
 30
0.0
  0
SPLINE
  5
393
330
38E
100
AcDbEntity
  8
Calque 1
 62
   179
420
  1842203
370
     9
100
AcDbSpline
210
0.0
220
0.0
230
1.0
 70
    11
 71
     3
 72
    17
 73
    13
 74
     0
 42
0.0000000001
 43
0.0000000001
 40
0.0
 40
0.0
 40
0.0
 40
0.0
 40
1.0
 40
1.0
 40
1.0
 40
2.0
 40
2.0
 40
2.0
 40
3.0
 40
3.0
 40
3.0
 40
4.0
 40
4.0
 40
4.0
 40
4.0
 10
184.1608012398242
 20
-105.1974380784633
 30
0.0
 10
185.0570434215579
 20
-105.1974380784633
 30
0.0
 10
185.7839590484879
 20
-105.9236646858417
 30
0.0
 10
185.7839590484879
 20
-106.8200791224633
 30
0.0
 10
185.7839590484879
 20
-107.7168380688607
 30
0.0
 10
185.0570434215579
 20
-108.443064676239
 30
0.0
 10
184.1608012398242
 20
-108.443064676239
 30
0.0
 10
183.2647313129784
 20
-108.443064676239
 30
0.0
 10
182.5379879409364
 20
-107.7168380688607
 30
0.0
 10
182.5379879409364
 20
-106.8200791224633
 30
0.0
 10
182.5379879409364
 20
-105.9236646858417
 30
0.0
 10
183.2647313129784
 20
-105.1974380784633
 30
0.0
 10
184.1608012398242
 20
-105.1974380784633
 30
0.0
  0
SPLINE
  5
394
330
38E
100
AcDbEntity
  8
Calque 1
 62
   179
420
  1842203
370
     9
100
AcDbSpline
210
0.0
220
0.0
230
1.0
 70
    11
 71
     3
 72
    17
 73
    13
 74
     0
 42
0.0000000001
 43
0.0000000001
 40
0.0
 40
0.0
 40
0.0
 40
0.0
 40
1.0
 40
1.0
 40
1.0
 40
2.0
 40
2.0
 40
2.0
 40
3.0
 40
3.0
 40
3.0
 40
4.0
 40
4.0
 40
4.0
 40
4.0
 10
182.9503661425644
 20
-81.24298434780412
 30
0.0
 10
184.5147850344548
 20
-81.24298434780412
 30
0.0
 10
185.7839590484879
 20
-82.51164159717352
 30
0.0
 10
185.7839590484879
 20
-84.07640499883972
 30
0.0
 10
185.7839590484879
 20
-85.64151291028172
 30
0.0
 10
184.5147850344548
 20
-86.90982564987532
 30
0.0
 10
182.9503661425644
 20
-86.90982564987532
 30
0.0
 10
181.385947250674
 20
-86.90982564987532
 30
0.0
 10
180.1171177464167
 20
-85.64151291028172
 30
0.0
 10
180.1171177464167
 20
-84.07640499883972
 30
0.0
 10
180.1171177464167
 20
-82.51164159717352
 30
0.0
 10
181.385947250674
 20
-81.24298434780412
 30
0.0
 10
182.9503661425644
 20
-81.24298434780412
 30
0.0
  0
POLYLINE
  5
395
330
38E
100
AcDbEntity
  8
Calque 1
 62
   179
420
  1842203
370
     9
100
AcDb2dPolyline
 66
     1
 10
0.0
 20
0.0
 30
0.0
  0
VERTEX
  5
396
330
395
100
AcDbEntity
  8
Calque 1
 62
   179
420
  1842203
370
     9
100
AcDbVertex
100
AcDb2dVertex
 10
180.1107443155645
 20
-127.564046252478
 30
0.0
  0
VERTEX
  5
397
330
395
100
AcDbEntity
  8
Calque 1
 62
   179
420
  1842203
370
     9
100
AcDbVertex
100
AcDb2dVertex
 10
185.7832700289363
 20
-127.564046252478
 30
0.0
  0
SEQEND
  5
398
330
395
100
AcDbEntity
  8
Calque 1
370
     9
  0
INSERT
  5
39A
330
38E
100
AcDbEntity
  8
Calque 1
100
AcDbBlockReference
  2
block 21
 10
0.0
 20
0.0
 30
0.0
  0
INSERT
  5
3A3
330
38E
100
AcDbEntity
  8
Calque 1
100
AcDbBlockReference
  2
block 22
 10
0.0
 20
0.0
 30
0.0
  0
INSERT
  5
3AC
330
38E
100
AcDbEntity
  8
Calque 1
100
AcDbBlockReference
  2
block 23
 10
0.0
 20
0.0
 30
0.0
  0
SPLINE
  5
3B7
330
38E
100
AcDbEntity
  8
Calque 1
 62
   179
420
  1842203
370
     9
100
AcDbSpline
210
0.0
220
0.0
230
1.0
 70
    11
 71
     3
 72
    26
 73
    22
 74
     0
 42
0.0000000001
 43
0.0000000001
 40
0.0
 40
0.0
 40
0.0
 40
0.0
 40
1.0
 40
1.0
 40
1.0
 40
2.0
 40
2.0
 40
2.0
 40
3.0
 40
3.0
 40
3.0
 40
4.0
 40
4.0
 40
4.0
 40
5.0
 40
5.0
 40
5.0
 40
6.0
 40
6.0
 40
6.0
 40
7.0
 40
7.0
 40
7.0
 40
7.0
 10
185.7822364996089
 20
-134.5307229386281
 30
0.0
 10
185.7822364996089
 20
-134.5307229386281
 30
0.0
 10
180.0973084343084
 20
-134.5307229386281
 30
0.0
 10
180.0973084343084
 20
-134.5307229386281
 30
0.0
 10
180.0973084343084
 20
-134.5307229386281
 30
0.0
 10
182.8964503626523
 20
-134.5307229386281
 30
0.0
 10
182.8964503626523
 20
-134.5307229386281
 30
0.0
 10
182.8964503626523
 20
-134.5307229386281
 30
0.0
 10
180.0973084343084
 20
-131.3677786870435
 30
0.0
 10
180.0973084343084
 20
-131.3677786870435
 30
0.0
 10
180.0973084343084
 20
-131.3677786870435
 30
0.0
 10
182.8964503626523
 20
-134.5307229386281
 30
0.0
 10
182.8964503626523
 20
-134.5307229386281
 30
0.0
 10
182.8964503626523
 20
-134.5307229386281
 30
0.0
 10
185.7822364996089
 20
-131.3519312373569
 30
0.0
 10
185.7822364996089
 20
-131.3519312373569
 30
0.0
 10
185.7822364996089
 20
-131.3519312373569
 30
0.0
 10
182.8964503626523
 20
-134.5307229386281
 30
0.0
 10
182.8964503626523
 20
-134.5307229386281
 30
0.0
 10
182.8964503626523
 20
-134.5307229386281
 30
0.0
 10
185.7822364996089
 20
-134.5307229386281
 30
0.0
 10
185.7822364996089
 20
-134.5307229386281
 30
0.0
  0
SPLINE
  5
3B8
330
38E
100
AcDbEntity
  8
Calque 1
 62
   179
420
  1842203
370
     9
100
AcDbSpline
210
0.0
220
0.0
230
1.0
 70
     8
 71
     3
 72
    29
 73
    25
 74
     0
 42
0.0000000001
 43
0.0000000001
 40
0.0
 40
0.0
 40
0.0
 40
0.0
 40
1.0
 40
1.0
 40
1.0
 40
2.0
 40
2.0
 40
2.0
 40
3.0
 40
3.0
 40
3.0
 40
4.0
 40
4.0
 40
4.0
 40
5.0
 40
5.0
 40
5.0
 40
6.0
 40
6.0
 40
6.0
 40
7.0
 40
7.0
 40
7.0
 40
8.0
 40
8.0
 40
8.0
 40
8.0
 10
185.7822364996089
 20
-109.3887440107995
 30
0.0
 10
185.7822364996089
 20
-109.6033736011206
 30
0.0
 10
185.7393450325223
 20
-109.8035337808581
 30
0.0
 10
185.6530453336853
 20
-109.9899135695639
 30
0.0
 10
185.5669178897363
 20
-110.1762933582696
 30
0.0
 10
185.4503013306293
 20
-110.3392464822212
 30
0.0
 10
185.3033679112522
 20
-110.4791174511944
 30
0.0
 10
185.156779001651
 20
-110.6189884201677
 30
0.0
 10
184.9855576430803
 20
-110.7295760581982
 30
0.0
 10
184.789876090428
 20
-110.8112248750619
 30
0.0
 10
184.5940222828879
 20
-110.8928736919256
 30
0.0
 10
184.3843880843159
 20
-110.9335258454695
 30
0.0
 10
184.1608012398242
 20
-110.9335258454695
 30
0.0
 10
183.9370421404446
 20
-110.9335258454695
 30
0.0
 10
183.7274079418727
 20
-110.8928736919256
 30
0.0
 10
183.5317263892204
 20
-110.8112248750619
 30
0.0
 10
183.3360448365682
 20
-110.7295760581982
 30
0.0
 10
183.1648234779975
 20
-110.6189884201677
 30
0.0
 10
183.0180623135083
 20
-110.4791174511944
 30
0.0
 10
182.8713011490192
 20
-110.3392464822212
 30
0.0
 10
182.7548568448001
 20
-110.1762933582696
 30
0.0
 10
182.6685571459631
 20
-109.9899135695639
 30
0.0
 10
182.5824297020141
 20
-109.8035337808581
 30
0.0
 10
182.5393659800395
 20
-109.6033736011206
 30
0.0
 10
182.5393659800395
 20
-109.3887440107995
 30
0.0
  0
SPLINE
  5
3B9
330
38E
100
AcDbEntity
  8
Calque 1
 62
   179
420
  1842203
370
     9
100
AcDbSpline
210
0.0
220
0.0
230
1.0
 70
     8
 71
     3
 72
    29
 73
    25
 74
     0
 42
0.0000000001
 43
0.0000000001
 40
0.0
 40
0.0
 40
0.0
 40
0.0
 40
1.0
 40
1.0
 40
1.0
 40
2.0
 40
2.0
 40
2.0
 40
3.0
 40
3.0
 40
3.0
 40
4.0
 40
4.0
 40
4.0
 40
5.0
 40
5.0
 40
5.0
 40
6.0
 40
6.0
 40
6.0
 40
7.0
 40
7.0
 40
7.0
 40
8.0
 40
8.0
 40
8.0
 40
8.0
 10
182.5393659800395
 20
-109.3887440107995
 30
0.0
 10
182.5393659800395
 20
-109.6033736011206
 30
0.0
 10
182.5824297020141
 20
-109.8035337808581
 30
0.0
 10
182.6685571459631
 20
-109.9899135695639
 30
0.0
 10
182.7548568448001
 20
-110.1762933582696
 30
0.0
 10
182.8713011490192
 20
-110.3392464822212
 30
0.0
 10
183.0180623135083
 20
-110.4791174511944
 30
0.0
 10
183.1648234779975
 20
-110.6189884201677
 30
0.0
 10
183.3360448365682
 20
-110.7295760581982
 30
0.0
 10
183.5317263892204
 20
-110.8112248750619
 30
0.0
 10
183.7274079418727
 20
-110.8928736919256
 30
0.0
 10
183.9370421404446
 20
-110.9335258454695
 30
0.0
 10
184.1608012398242
 20
-110.9335258454695
 30
0.0
 10
184.3843880843159
 20
-110.9335258454695
 30
0.0
 10
184.5940222828879
 20
-110.8928736919256
 30
0.0
 10
184.789876090428
 20
-110.8112248750619
 30
0.0
 10
184.9855576430803
 20
-110.7295760581982
 30
0.0
 10
185.156779001651
 20
-110.6189884201677
 30
0.0
 10
185.3033679112522
 20
-110.4791174511944
 30
0.0
 10
185.4503013306293
 20
-110.3392464822212
 30
0.0
 10
185.5669178897363
 20
-110.1762933582696
 30
0.0
 10
185.6530453336853
 20
-109.9899135695639
 30
0.0
 10
185.7393450325223
 20
-109.8035337808581
 30
0.0
 10
185.7822364996089
 20
-109.6033736011206
 30
0.0
 10
185.7822364996089
 20
-109.3887440107995
 30
0.0
  0
INSERT
  5
3BB
330
38E
100
AcDbEntity
  8
Calque 1
100
AcDbBlockReference
  2
block 24
 10
0.0
 20
0.0
 30
0.0
  0
INSERT
  5
3C4
330
38E
100
AcDbEntity
  8
Calque 1
100
AcDbBlockReference
  2
block 25
 10
0.0
 20
0.0
 30
0.0
  0
INSERT
  5
3CD
330
38E
100
AcDbEntity
  8
Calque 1
100
AcDbBlockReference
  2
block 26
 10
0.0
 20
0.0
 30
0.0
  0
INSERT
  5
3D6
330
38E
100
AcDbEntity
  8
Calque 1
100
AcDbBlockReference
  2
block 27
 10
0.0
 20
0.0
 30
0.0
  0
SPLINE
  5
3E3
330
38E
100
AcDbEntity
  8
Calque 1
 62
   179
420
  1842203
370
     9
100
AcDbSpline
210
0.0
220
0.0
230
1.0
 70
     8
 71
     3
 72
    26
 73
    22
 74
     0
 42
0.0000000001
 43
0.0000000001
 40
0.0
 40
0.0
 40
0.0
 40
0.0
 40
1.0
 40
1.0
 40
1.0
 40
2.0
 40
2.0
 40
2.0
 40
3.0
 40
3.0
 40
3.0
 40
4.0
 40
4.0
 40
4.0
 40
5.0
 40
5.0
 40
5.0
 40
6.0
 40
6.0
 40
6.0
 40
7.0
 40
7.0
 40
7.0
 40
7.0
 10
185.5080067180751
 20
-113.4942670089625
 30
0.0
 10
185.6776777826547
 20
-113.3230456503918
 30
0.0
 10
185.7824087544968
 20
-113.087745473523
 30
0.0
 10
185.7824087544968
 20
-112.8276405927969
 30
0.0
 10
185.7824087544968
 20
-112.3046747531383
 30
0.0
 10
185.3586617302675
 20
-111.880927728909
 30
0.0
 10
184.8356958906089
 20
-111.880927728909
 30
0.0
 10
184.3123855411745
 20
-111.880927728909
 30
0.0
 10
183.8888107718331
 20
-112.3046747531383
 30
0.0
 10
183.8888107718331
 20
-112.8276405927969
 30
0.0
 10
183.8888107718331
 20
-112.8276405927969
 30
0.0
 10
183.8888107718331
 20
-112.8362533371918
 30
0.0
 10
183.8888107718331
 20
-112.8362533371918
 30
0.0
 10
183.8888107718331
 20
-113.2103909537064
 30
0.0
 10
183.5859866789083
 20
-113.5132150466313
 30
0.0
 10
183.2120213172816
 20
-113.5132150466313
 30
0.0
 10
182.8382282105427
 20
-113.5132150466313
 30
0.0
 10
182.5354041176179
 20
-113.2103909537064
 30
0.0
 10
182.5354041176179
 20
-112.8362533371918
 30
0.0
 10
182.5354041176179
 20
-112.6498735484861
 30
0.0
 10
182.6106795036294
 20
-112.4810637583459
 30
0.0
 10
182.7324637093733
 20
-112.3587627879383
 30
0.0
  0
SPLINE
  5
3E4
330
38E
100
AcDbEntity
  8
Calque 1
 62
   179
420
  1842203
370
     9
100
AcDbSpline
210
0.0
220
0.0
230
1.0
 70
    11
 71
     3
 72
    17
 73
    13
 74
     0
 42
0.0000000001
 43
0.0000000001
 40
0.0
 40
0.0
 40
0.0
 40
0.0
 40
1.0
 40
1.0
 40
1.0
 40
2.0
 40
2.0
 40
2.0
 40
3.0
 40
3.0
 40
3.0
 40
4.0
 40
4.0
 40
4.0
 40
4.0
 10
182.9503661425644
 20
-74.19500335456611
 30
0.0
 10
184.5147850344548
 20
-74.19500335456611
 30
0.0
 10
185.7839590484879
 20
-75.4634883490476
 30
0.0
 10
185.7839590484879
 20
-77.02842400560169
 30
0.0
 10
185.7839590484879
 20
-78.59353191704369
 30
0.0
 10
184.5147850344548
 20
-79.86184465663729
 30
0.0
 10
182.9503661425644
 20
-79.86184465663729
 30
0.0
 10
181.385947250674
 20
-79.86184465663729
 30
0.0
 10
180.1171177464167
 20
-78.59353191704369
 30
0.0
 10
180.1171177464167
 20
-77.02842400560169
 30
0.0
 10
180.1171177464167
 20
-75.4634883490476
 30
0.0
 10
181.385947250674
 20
-74.19500335456611
 30
0.0
 10
182.9503661425644
 20
-74.19500335456611
 30
0.0
  0
SPLINE
  5
3E5
330
38E
100
AcDbEntity
  8
Calque 1
 62
   179
420
  1842203
370
     9
100
AcDbSpline
210
0.0
220
0.0
230
1.0
 70
    11
 71
     3
 72
    17
 73
    13
 74
     0
 42
0.0000000001
 43
0.0000000001
 40
0.0
 40
0.0
 40
0.0
 40
0.0
 40
1.0
 40
1.0
 40
1.0
 40
2.0
 40
2.0
 40
2.0
 40
3.0
 40
3.0
 40
3.0
 40
4.0
 40
4.0
 40
4.0
 40
4.0
 10
182.9503661425644
 20
-67.15236226285293
 30
0.0
 10
184.5147850344548
 20
-67.15236226285293
 30
0.0
 10
185.7839590484879
 20
-68.42101951222232
 30
0.0
 10
185.7839590484879
 20
-69.98578291388851
 30
0.0
 10
185.7839590484879
 20
-71.55089082533051
 30
0.0
 10
184.5147850344548
 20
-72.81903131003621
 30
0.0
 10
182.9503661425644
 20
-72.81903131003621
 30
0.0
 10
181.385947250674
 20
-72.81903131003621
 30
0.0
 10
180.1171177464167
 20
-71.55089082533051
 30
0.0
 10
180.1171177464167
 20
-69.98578291388851
 30
0.0
 10
180.1171177464167
 20
-68.42101951222232
 30
0.0
 10
181.385947250674
 20
-67.15236226285293
 30
0.0
 10
182.9503661425644
 20
-67.15236226285293
 30
0.0
  0
ENDBLK
  5
391
330
38E
100
AcDbEntity
  8
0
100
AcDbBlockEnd
  0
BLOCK
  5
39B
330
399
100
AcDbEntity
  8
0
100
AcDbBlockBegin
  2
block 21
 70
     0
 71
     0
 10
0.0
 20
0.0
 30
0.0
  3
block 21
  1

  0
SPLINE
  5
39D
330
399
100
AcDbEntity
  8
Calque 1
 62
   179
420
  1842203
370
     9
100
AcDbSpline
210
0.0
220
0.0
230
1.0
 70
    11
 71
     3
 72
    17
 73
    13
 74
     0
 42
0.0000000001
 43
0.0000000001
 40
0.0
 40
0.0
 40
0.0
 40
0.0
 40
1.0
 40
1.0
 40
1.0
 40
2.0
 40
2.0
 40
2.0
 40
3.0
 40
3.0
 40
3.0
 40
4.0
 40
4.0
 40
4.0
 40
4.0
 10
184.1608012398242
 20
-118.6567459992681
 30
0.0
 10
185.0570434215579
 20
-118.6567459992681
 30
0.0
 10
185.7839590484879
 20
-119.3833171164222
 30
0.0
 10
185.7839590484879
 20
-120.2797315530438
 30
0.0
 10
185.7839590484879
 20
-121.1761459896654
 30
0.0
 10
185.0570434215579
 20
-121.9023725970438
 30
0.0
 10
184.1608012398242
 20
-121.9023725970438
 30
0.0
 10
183.2647313129784
 20
-121.9023725970438
 30
0.0
 10
182.5379879409364
 20
-121.1761459896654
 30
0.0
 10
182.5379879409364
 20
-120.2797315530438
 30
0.0
 10
182.5379879409364
 20
-119.3833171164222
 30
0.0
 10
183.2647313129784
 20
-118.6567459992681
 30
0.0
 10
184.1608012398242
 20
-118.6567459992681
 30
0.0
  0
POLYLINE
  5
39E
330
399
100
AcDbEntity
  8
Calque 1
 62
   179
420
  1842203
370
     9
100
AcDb2dPolyline
 66
     1
 10
0.0
 20
0.0
 30
0.0
  0
VERTEX
  5
39F
330
39E
100
AcDbEntity
  8
Calque 1
 62
   179
420
  1842203
370
     9
100
AcDbVertex
100
AcDb2dVertex
 10
180.1107443155645
 20
-118.6567459992681
 30
0.0
  0
VERTEX
  5
3A0
330
39E
100
AcDbEntity
  8
Calque 1
 62
   179
420
  1842203
370
     9
100
AcDbVertex
100
AcDb2dVertex
 10
185.7822364996089
 20
-118.6567459992681
 30
0.0
  0
SEQEND
  5
3A1
330
39E
100
AcDbEntity
  8
Calque 1
370
     9
  0
ENDBLK
  5
39C
330
399
100
AcDbEntity
  8
0
100
AcDbBlockEnd
  0
BLOCK
  5
3A4
330
3A2
100
AcDbEntity
  8
0
100
AcDbBlockBegin
  2
block 22
 70
     0
 71
     0
 10
0.0
 20
0.0
 30
0.0
  3
block 22
  1

  0
SPLINE
  5
3A6
330
3A2
100
AcDbEntity
  8
Calque 1
 62
   179
420
  1842203
370
     9
100
AcDbSpline
210
0.0
220
0.0
230
1.0
 70
    11
 71
     3
 72
    17
 73
    13
 74
     0
 42
0.0000000001
 43
0.0000000001
 40
0.0
 40
0.0
 40
0.0
 40
0.0
 40
1.0
 40
1.0
 40
1.0
 40
2.0
 40
2.0
 40
2.0
 40
3.0
 40
3.0
 40
3.0
 40
4.0
 40
4.0
 40
4.0
 40
4.0
 10
184.1616625142637
 20
-104.2486581559207
 30
0.0
 10
183.26542033253
 20
-104.2486581559207
 30
0.0
 10
182.5385047056001
 20
-103.5220870387666
 30
0.0
 10
182.5385047056001
 20
-102.6256726021449
 30
0.0
 10
182.5385047056001
 20
-101.7292581655233
 30
0.0
 10
183.26542033253
 20
-101.0026870483692
 30
0.0
 10
184.1616625142637
 20
-101.0026870483692
 30
0.0
 10
185.0577324411096
 20
-101.0026870483692
 30
0.0
 10
185.7844758131516
 20
-101.7292581655233
 30
0.0
 10
185.7844758131516
 20
-102.6256726021449
 30
0.0
 10
185.7844758131516
 20
-103.5220870387666
 30
0.0
 10
185.0577324411096
 20
-104.2486581559207
 30
0.0
 10
184.1616625142637
 20
-104.2486581559207
 30
0.0
  0
POLYLINE
  5
3A7
330
3A2
100
AcDbEntity
  8
Calque 1
 62
   179
420
  1842203
370
     9
100
AcDb2dPolyline
 66
     1
 10
0.0
 20
0.0
 30
0.0
  0
VERTEX
  5
3A8
330
3A7
100
AcDbEntity
  8
Calque 1
 62
   179
420
  1842203
370
     9
100
AcDbVertex
100
AcDb2dVertex
 10
188.2118916934114
 20
-104.2486581559207
 30
0.0
  0
VERTEX
  5
3A9
330
3A7
100
AcDbEntity
  8
Calque 1
 62
   179
420
  1842203
370
     9
100
AcDbVertex
100
AcDb2dVertex
 10
182.5398827447032
 20
-104.2486581559207
 30
0.0
  0
SEQEND
  5
3AA
330
3A7
100
AcDbEntity
  8
Calque 1
370
     9
  0
ENDBLK
  5
3A5
330
3A2
100
AcDbEntity
  8
0
100
AcDbBlockEnd
  0
BLOCK
  5
3AD
330
3AB
100
AcDbEntity
  8
0
100
AcDbBlockBegin
  2
block 23
 70
     0
 71
     0
 10
0.0
 20
0.0
 30
0.0
  3
block 23
  1

  0
POLYLINE
  5
3AF
330
3AB
100
AcDbEntity
  8
Calque 1
 62
   179
420
  1842203
370
     9
100
AcDb2dPolyline
 66
     1
 10
0.0
 20
0.0
 30
0.0
  0
VERTEX
  5
3B0
330
3AF
100
AcDbEntity
  8
Calque 1
 62
   179
420
  1842203
370
     9
100
AcDbVertex
100
AcDb2dVertex
 10
182.5435000973491
 20
-122.8508080098106
 30
0.0
  0
VERTEX
  5
3B1
330
3AF
100
AcDbEntity
  8
Calque 1
 62
   179
420
  1842203
370
     9
100
AcDbVertex
100
AcDb2dVertex
 10
185.7822364996089
 20
-122.8508080098106
 30
0.0
  0
SEQEND
  5
3B2
330
3AF
100
AcDbEntity
  8
Calque 1
370
     9
  0
POLYLINE
  5
3B3
330
3AB
100
AcDbEntity
  8
Calque 1
 62
   179
420
  1842203
370
     9
100
AcDb2dPolyline
 66
     1
 10
0.0
 20
0.0
 30
0.0
  0
VERTEX
  5
3B4
330
3B3
100
AcDbEntity
  8
Calque 1
 62
   179
420
  1842203
370
     9
100
AcDbVertex
100
AcDb2dVertex
 10
180.8497177846473
 20
-122.8508080098106
 30
0.0
  0
VERTEX
  5
3B5
330
3B3
100
AcDbEntity
  8
Calque 1
 62
   179
420
  1842203
370
     9
100
AcDbVertex
100
AcDb2dVertex
 10
180.9113850345148
 20
-122.8508080098106
 30
0.0
  0
SEQEND
  5
3B6
330
3B3
100
AcDbEntity
  8
Calque 1
370
     9
  0
ENDBLK
  5
3AE
330
3AB
100
AcDbEntity
  8
0
100
AcDbBlockEnd
  0
BLOCK
  5
3BC
330
3BA
100
AcDbEntity
  8
0
100
AcDbBlockBegin
  2
block 24
 70
     0
 71
     0
 10
0.0
 20
0.0
 30
0.0
  3
block 24
  1

  0
SPLINE
  5
3BE
330
3BA
100
AcDbEntity
  8
Calque 1
 62
   179
420
  1842203
370
     9
100
AcDbSpline
210
0.0
220
0.0
230
1.0
 70
     8
 71
     3
 72
    62
 73
    58
 74
     0
 42
0.0000000001
 43
0.0000000001
 40
0.0
 40
0.0
 40
0.0
 40
0.0
 40
1.0
 40
1.0
 40
1.0
 40
2.0
 40
2.0
 40
2.0
 40
3.0
 40
3.0
 40
3.0
 40
4.0
 40
4.0
 40
4.0
 40
5.0
 40
5.0
 40
5.0
 40
6.0
 40
6.0
 40
6.0
 40
7.0
 40
7.0
 40
7.0
 40
8.0
 40
8.0
 40
8.0
 40
9.0
 40
9.0
 40
9.0
 40
10.0
 40
10.0
 40
10.0
 40
11.0
 40
11.0
 40
11.0
 40
12.0
 40
12.0
 40
12.0
 40
13.0
 40
13.0
 40
13.0
 40
14.0
 40
14.0
 40
14.0
 40
15.0
 40
15.0
 40
15.0
 40
16.0
 40
16.0
 40
16.0
 40
17.0
 40
17.0
 40
17.0
 40
18.0
 40
18.0
 40
18.0
 40
19.0
 40
19.0
 40
19.0
 40
19.0
 10
185.7488190513567
 20
-129.6693454923684
 30
0.0
 10
185.7283207196968
 20
-129.5883856950563
 30
0.0
 10
185.7004154278573
 20
-129.509492956399
 30
0.0
 10
185.6651031758382
 20
-129.433356295948
 30
0.0
 10
185.5810427905439
 20
-129.2511106245518
 30
0.0
 10
185.4654597607643
 20
-129.091947108134
 30
0.0
 10
185.3181818316114
 20
-128.9565547662461
 30
0.0
 10
185.1710761573465
 20
-128.8211624243582
 30
0.0
 10
184.9993380341121
 20
-128.7136753743098
 30
0.0
 10
184.8031397167962
 20
-128.6344381258767
 30
0.0
 10
184.6069413994803
 20
-128.5548563676678
 30
0.0
 10
184.3966181813567
 20
-128.5152377434512
 30
0.0
 10
184.1723423173134
 20
-128.5152377434512
 30
0.0
 10
183.9480664532701
 20
-128.5152377434512
 30
0.0
 10
183.7367097058192
 20
-128.5548563676678
 30
0.0
 10
183.5380998200727
 20
-128.6344381258767
 30
0.0
 10
183.3393176794383
 20
-128.7136753743098
 30
0.0
 10
183.1665460268765
 20
-128.8211624243582
 30
0.0
 10
183.0194403526115
 20
-128.9565547662461
 30
0.0
 10
182.8721624234587
 20
-129.091947108134
 30
0.0
 10
182.7553736094638
 20
-129.2511106245518
 30
0.0
 10
182.6689016557389
 20
-129.433356295948
 30
0.0
 10
182.582601956902
 20
-129.6156019673442
 30
0.0
 10
182.5393659800395
 20
-129.8116280297722
 30
0.0
 10
182.5393659800395
 20
-130.0217789930079
 30
0.0
 10
182.5393659800395
 20
-130.302209950506
 30
0.0
 10
182.6151581307147
 20
-130.5571471845951
 30
0.0
 10
182.7670869418408
 20
-130.7859016757238
 30
0.0
 10
182.918843498079
 20
-131.0146561668524
 30
0.0
 10
183.1164198544981
 20
-131.1969018382486
 30
0.0
 10
183.3594715013223
 20
-131.3326386899123
 30
0.0
 10
183.1164198544981
 20
-131.1969018382486
 30
0.0
 10
182.918843498079
 20
-131.0146561668524
 30
0.0
 10
182.7670869418408
 20
-130.7859016757238
 30
0.0
 10
182.6151581307147
 20
-130.5571471845951
 30
0.0
 10
182.5393659800395
 20
-130.302209950506
 30
0.0
 10
182.5393659800395
 20
-130.0217789930079
 30
0.0
 10
182.5393659800395
 20
-129.8116280297722
 30
0.0
 10
182.582601956902
 20
-129.6156019673442
 30
0.0
 10
182.6689016557389
 20
-129.433356295948
 30
0.0
 10
182.7553736094638
 20
-129.2511106245518
 30
0.0
 10
182.8721624234587
 20
-129.091947108134
 30
0.0
 10
183.0194403526115
 20
-128.9565547662461
 30
0.0
 10
183.1665460268765
 20
-128.8211624243582
 30
0.0
 10
183.3393176794383
 20
-128.7136753743098
 30
0.0
 10
183.5380998200727
 20
-128.6344381258767
 30
0.0
 10
183.7367097058192
 20
-128.5548563676678
 30
0.0
 10
183.9480664532701
 20
-128.5152377434512
 30
0.0
 10
184.1723423173134
 20
-128.5152377434512
 30
0.0
 10
184.3966181813567
 20
-128.5152377434512
 30
0.0
 10
184.6069413994803
 20
-128.5548563676678
 30
0.0
 10
184.8031397167962
 20
-128.6344381258767
 30
0.0
 10
184.9993380341121
 20
-128.7136753743098
 30
0.0
 10
185.1710761573465
 20
-128.8211624243582
 30
0.0
 10
185.3181818316114
 20
-128.9565547662461
 30
0.0
 10
185.4654597607643
 20
-129.091947108134
 30
0.0
 10
185.5810427905439
 20
-129.2511106245518
 30
0.0
 10
185.6651031758382
 20
-129.433356295948
 30
0.0
  0
POLYLINE
  5
3BF
330
3BA
100
AcDbEntity
  8
Calque 1
 62
   179
420
  1842203
370
     9
100
AcDb2dPolyline
 66
     1
 10
0.0
 20
0.0
 30
0.0
  0
VERTEX
  5
3C0
330
3BF
100
AcDbEntity
  8
Calque 1
 62
   179
420
  1842203
370
     9
100
AcDbVertex
100
AcDb2dVertex
 10
184.2283251558803
 20
-128.5221279389671
 30
0.0
  0
VERTEX
  5
446
330
3BF
100
AcDbEntity
  8
0
100
AcDbVertex
100
AcDb2dVertex
 10
184.2283251558803
 20
-128.5221279389671
 30
0.0
  0
SEQEND
  5
3C1
330
3BF
100
AcDbEntity
  8
Calque 1
370
     9
  0
SPLINE
  5
3C2
330
3BA
100
AcDbEntity
  8
Calque 1
 62
   179
420
  1842203
370
     9
100
AcDbSpline
210
0.0
220
0.0
230
1.0
 70
    11
 71
     3
 72
    17
 73
    13
 74
     0
 42
0.0000000001
 43
0.0000000001
 40
0.0
 40
0.0
 40
0.0
 40
0.0
 40
1.0
 40
1.0
 40
1.0
 40
2.0
 40
2.0
 40
2.0
 40
3.0
 40
3.0
 40
3.0
 40
4.0
 40
4.0
 40
4.0
 40
4.0
 10
184.8544716733898
 20
-130.8489469646945
 30
0.0
 10
184.3409798525656
 20
-130.8489469646945
 30
0.0
 10
183.9251565531796
 20
-130.4331236653085
 30
0.0
 10
183.9251565531796
 20
-129.9198040993722
 30
0.0
 10
183.9251565531796
 20
-129.4064845334359
 30
0.0
 10
184.3409798525656
 20
-128.99066123405
 30
0.0
 10
184.8544716733898
 20
-128.99066123405
 30
0.0
 10
185.3676189844382
 20
-128.99066123405
 30
0.0
 10
185.7834422838242
 20
-129.4064845334359
 30
0.0
 10
185.7834422838242
 20
-129.9198040993722
 30
0.0
 10
185.7834422838242
 20
-130.4331236653085
 30
0.0
 10
185.3676189844382
 20
-130.8489469646945
 30
0.0
 10
184.8544716733898
 20
-130.8489469646945
 30
0.0
  0
ENDBLK
  5
3BD
330
3BA
100
AcDbEntity
  8
0
100
AcDbBlockEnd
  0
BLOCK
  5
3C5
330
3C3
100
AcDbEntity
  8
0
100
AcDbBlockBegin
  2
block 25
 70
     0
 71
     0
 10
0.0
 20
0.0
 30
0.0
  3
block 25
  1

  0
SPLINE
  5
3C7
330
3C3
100
AcDbEntity
  8
Calque 1
 62
   179
420
  1842203
370
     9
100
AcDbSpline
210
0.0
220
0.0
230
1.0
 70
     8
 71
     3
 72
    62
 73
    58
 74
     0
 42
0.0000000001
 43
0.0000000001
 40
0.0
 40
0.0
 40
0.0
 40
0.0
 40
1.0
 40
1.0
 40
1.0
 40
2.0
 40
2.0
 40
2.0
 40
3.0
 40
3.0
 40
3.0
 40
4.0
 40
4.0
 40
4.0
 40
5.0
 40
5.0
 40
5.0
 40
6.0
 40
6.0
 40
6.0
 40
7.0
 40
7.0
 40
7.0
 40
8.0
 40
8.0
 40
8.0
 40
9.0
 40
9.0
 40
9.0
 40
10.0
 40
10.0
 40
10.0
 40
11.0
 40
11.0
 40
11.0
 40
12.0
 40
12.0
 40
12.0
 40
13.0
 40
13.0
 40
13.0
 40
14.0
 40
14.0
 40
14.0
 40
15.0
 40
15.0
 40
15.0
 40
16.0
 40
16.0
 40
16.0
 40
17.0
 40
17.0
 40
17.0
 40
18.0
 40
18.0
 40
18.0
 40
19.0
 40
19.0
 40
19.0
 40
19.0
 10
182.5715776440765
 20
-98.89842133780618
 30
0.0
 10
182.5922482306243
 20
-98.97938113511829
 30
0.0
 10
182.6199812675759
 20
-99.05827387377562
 30
0.0
 10
182.6551212647071
 20
-99.13441053422656
 30
0.0
 10
182.7393539048892
 20
-99.31665620562273
 30
0.0
 10
182.8549369346688
 20
-99.47547521226477
 30
0.0
 10
183.0020426089338
 20
-99.61086755415266
 30
0.0
 10
183.1491482831988
 20
-99.74660440581636
 30
0.0
 10
183.3210586613211
 20
-99.85409145586476
 30
0.0
 10
183.517256978637
 20
-99.93332870429788
 30
0.0
 10
183.713283041065
 20
-100.0129104625068
 30
0.0
 10
183.9237785140764
 20
-100.0525290867234
 30
0.0
 10
184.1480543781198
 20
-100.0525290867234
 30
0.0
 10
184.3723302421631
 20
-100.0525290867234
 30
0.0
 10
184.583686989614
 20
-100.0129104625068
 30
0.0
 10
184.7822968753605
 20
-99.93332870429788
 30
0.0
 10
184.9810790159949
 20
-99.85409145586476
 30
0.0
 10
185.1536784136688
 20
-99.74660440581636
 30
0.0
 10
185.3009563428216
 20
-99.61086755415266
 30
0.0
 10
185.4480620170866
 20
-99.47547521226477
 30
0.0
 10
185.5650230859694
 20
-99.31665620562273
 30
0.0
 10
185.6513227848064
 20
-99.13441053422656
 30
0.0
 10
185.7377947385312
 20
-98.95216486283039
 30
0.0
 10
185.7810307153936
 20
-98.75579429062658
 30
0.0
 10
185.7810307153936
 20
-98.54564332739092
 30
0.0
 10
185.7810307153936
 20
-98.26521236989284
 30
0.0
 10
185.7050663098306
 20
-98.01061964557947
 30
0.0
 10
185.5533097535923
 20
-97.78186515445081
 30
0.0
 10
185.4015531973541
 20
-97.55276615354636
 30
0.0
 10
185.203976840935
 20
-97.37052048215018
 30
0.0
 10
184.9609251941108
 20
-97.23512814026229
 30
0.0
 10
185.203976840935
 20
-97.37052048215018
 30
0.0
 10
185.4015531973541
 20
-97.55276615354636
 30
0.0
 10
185.5533097535923
 20
-97.78186515445081
 30
0.0
 10
185.7050663098306
 20
-98.01061964557947
 30
0.0
 10
185.7810307153936
 20
-98.26521236989284
 30
0.0
 10
185.7810307153936
 20
-98.54564332739092
 30
0.0
 10
185.7810307153936
 20
-98.75579429062658
 30
0.0
 10
185.7377947385312
 20
-98.95216486283039
 30
0.0
 10
185.6513227848064
 20
-99.13441053422656
 30
0.0
 10
185.5650230859694
 20
-99.31665620562273
 30
0.0
 10
185.4480620170866
 20
-99.47547521226477
 30
0.0
 10
185.3009563428216
 20
-99.61086755415266
 30
0.0
 10
185.1536784136688
 20
-99.74660440581636
 30
0.0
 10
184.9810790159949
 20
-99.85409145586476
 30
0.0
 10
184.7822968753605
 20
-99.93332870429788
 30
0.0
 10
184.583686989614
 20
-100.0129104625068
 30
0.0
 10
184.3723302421631
 20
-100.0525290867234
 30
0.0
 10
184.1480543781198
 20
-100.0525290867234
 30
0.0
 10
183.9237785140764
 20
-100.0525290867234
 30
0.0
 10
183.713283041065
 20
-100.0129104625068
 30
0.0
 10
183.517256978637
 20
-99.93332870429788
 30
0.0
 10
183.3210586613211
 20
-99.85409145586476
 30
0.0
 10
183.1491482831988
 20
-99.74660440581636
 30
0.0
 10
183.0020426089338
 20
-99.61086755415266
 30
0.0
 10
182.8549369346688
 20
-99.47547521226477
 30
0.0
 10
182.7393539048892
 20
-99.31665620562273
 30
0.0
 10
182.6551212647071
 20
-99.13441053422656
 30
0.0
  0
POLYLINE
  5
3C8
330
3C3
100
AcDbEntity
  8
Calque 1
 62
   179
420
  1842203
370
     9
100
AcDb2dPolyline
 66
     1
 10
0.0
 20
0.0
 30
0.0
  0
VERTEX
  5
3C9
330
3C8
100
AcDbEntity
  8
Calque 1
 62
   179
420
  1842203
370
     9
100
AcDbVertex
100
AcDb2dVertex
 10
184.091899284665
 20
-100.0456388912074
 30
0.0
  0
VERTEX
  5
447
330
3C8
100
AcDbEntity
  8
0
100
AcDbVertex
100
AcDb2dVertex
 10
184.091899284665
 20
-100.0456388912074
 30
0.0
  0
SEQEND
  5
3CA
330
3C8
100
AcDbEntity
  8
Calque 1
370
     9
  0
SPLINE
  5
3CB
330
3C3
100
AcDbEntity
  8
Calque 1
 62
   179
420
  1842203
370
     9
100
AcDbSpline
210
0.0
220
0.0
230
1.0
 70
    11
 71
     3
 72
    17
 73
    13
 74
     0
 42
0.0000000001
 43
0.0000000001
 40
0.0
 40
0.0
 40
0.0
 40
0.0
 40
1.0
 40
1.0
 40
1.0
 40
2.0
 40
2.0
 40
2.0
 40
3.0
 40
3.0
 40
3.0
 40
4.0
 40
4.0
 40
4.0
 40
4.0
 10
183.4659250220433
 20
-97.71881986548011
 30
0.0
 10
183.9794168428676
 20
-97.71881986548011
 30
0.0
 10
184.3950678873656
 20
-98.13429865509029
 30
0.0
 10
184.3950678873656
 20
-98.64761822102658
 30
0.0
 10
184.3950678873656
 20
-99.16128229673866
 30
0.0
 10
183.9794168428676
 20
-99.57676108634885
 30
0.0
 10
183.4659250220433
 20
-99.57676108634885
 30
0.0
 10
182.9526054561071
 20
-99.57676108634885
 30
0.0
 10
182.5367821567211
 20
-99.16128229673866
 30
0.0
 10
182.5367821567211
 20
-98.64761822102658
 30
0.0
 10
182.5367821567211
 20
-98.13429865509029
 30
0.0
 10
182.9526054561071
 20
-97.71881986548011
 30
0.0
 10
183.4659250220433
 20
-97.71881986548011
 30
0.0
  0
ENDBLK
  5
3C6
330
3C3
100
AcDbEntity
  8
0
100
AcDbBlockEnd
  0
BLOCK
  5
3CE
330
3CC
100
AcDbEntity
  8
0
100
AcDbBlockBegin
  2
block 26
 70
     0
 71
     0
 10
0.0
 20
0.0
 30
0.0
  3
block 26
  1

  0
SPLINE
  5
3D0
330
3CC
100
AcDbEntity
  8
Calque 1
 62
   179
420
  1842203
370
     9
100
AcDbSpline
210
0.0
220
0.0
230
1.0
 70
     8
 71
     3
 72
    62
 73
    58
 74
     0
 42
0.0000000001
 43
0.0000000001
 40
0.0
 40
0.0
 40
0.0
 40
0.0
 40
1.0
 40
1.0
 40
1.0
 40
2.0
 40
2.0
 40
2.0
 40
3.0
 40
3.0
 40
3.0
 40
4.0
 40
4.0
 40
4.0
 40
5.0
 40
5.0
 40
5.0
 40
6.0
 40
6.0
 40
6.0
 40
7.0
 40
7.0
 40
7.0
 40
8.0
 40
8.0
 40
8.0
 40
9.0
 40
9.0
 40
9.0
 40
10.0
 40
10.0
 40
10.0
 40
11.0
 40
11.0
 40
11.0
 40
12.0
 40
12.0
 40
12.0
 40
13.0
 40
13.0
 40
13.0
 40
14.0
 40
14.0
 40
14.0
 40
15.0
 40
15.0
 40
15.0
 40
16.0
 40
16.0
 40
16.0
 40
17.0
 40
17.0
 40
17.0
 40
18.0
 40
18.0
 40
18.0
 40
19.0
 40
19.0
 40
19.0
 40
19.0
 10
185.5743248499159
 20
-91.60411585487391
 30
0.0
 10
185.427046920763
 20
-91.92278739748537
 30
0.0
 10
185.2253364470344
 20
-92.20046227677707
 30
0.0
 10
184.9678153896267
 20
-92.43731274763694
 30
0.0
 10
184.7106388419949
 20
-92.6743354733847
 30
0.0
 10
184.4105708272764
 20
-92.86192104630572
 30
0.0
 10
184.0674390905835
 20
-93.00075848595158
 30
0.0
 10
183.7244796087784
 20
-93.13976818048533
 30
0.0
 10
183.3570599328918
 20
-93.20901464542035
 30
0.0
 10
182.9650078080357
 20
-93.20901464542035
 30
0.0
 10
182.5729556831797
 20
-93.20901464542035
 30
0.0
 10
182.2034689486383
 20
-93.13976818048533
 30
0.0
 10
181.8563753495237
 20
-93.00075848595158
 30
0.0
 10
181.5091094955211
 20
-92.86192104630572
 30
0.0
 10
181.2071466770358
 20
-92.6743354733847
 30
0.0
 10
180.949797874516
 20
-92.43731274763694
 30
0.0
 10
180.6924490719963
 20
-92.20046227677707
 30
0.0
 10
180.4881547749492
 20
-91.92278739748537
 30
0.0
 10
180.3374317480383
 20
-91.60411585487391
 30
0.0
 10
180.1860197015759
 20
-91.28561656715036
 30
0.0
 10
180.1107443155645
 20
-90.94282934023316
 30
0.0
 10
180.1107443155645
 20
-90.57523740945865
 30
0.0
 10
180.1105720606766
 20
-90.0851722533886
 30
0.0
 10
180.2432083243581
 20
-89.64006562305995
 30
0.0
 10
180.508653106609
 20
-89.2399175184727
 30
0.0
 10
180.7739256339721
 20
-88.83994166877335
 30
0.0
 10
181.1191244293198
 20
-88.5214423810498
 30
0.0
 10
181.5439049828765
 20
-88.28441965530203
 30
0.0
 10
181.1191244293198
 20
-88.5214423810498
 30
0.0
 10
180.7739256339721
 20
-88.83994166877335
 30
0.0
 10
180.508653106609
 20
-89.2399175184727
 30
0.0
 10
180.2432083243581
 20
-89.64006562305995
 30
0.0
 10
180.1105720606766
 20
-90.0851722533886
 30
0.0
 10
180.1107443155645
 20
-90.57523740945865
 30
0.0
 10
180.1107443155645
 20
-90.94282934023316
 30
0.0
 10
180.1860197015759
 20
-91.28561656715036
 30
0.0
 10
180.3374317480383
 20
-91.60411585487391
 30
0.0
 10
180.4881547749492
 20
-91.92278739748537
 30
0.0
 10
180.6924490719963
 20
-92.20046227677707
 30
0.0
 10
180.949797874516
 20
-92.43731274763694
 30
0.0
 10
181.2071466770358
 20
-92.6743354733847
 30
0.0
 10
181.5091094955211
 20
-92.86192104630572
 30
0.0
 10
181.8563753495237
 20
-93.00075848595158
 30
0.0
 10
182.2034689486383
 20
-93.13976818048533
 30
0.0
 10
182.5729556831797
 20
-93.20901464542035
 30
0.0
 10
182.9650078080357
 20
-93.20901464542035
 30
0.0
 10
183.3570599328918
 20
-93.20901464542035
 30
0.0
 10
183.7244796087784
 20
-93.13976818048533
 30
0.0
 10
184.0674390905835
 20
-93.00075848595158
 30
0.0
 10
184.4105708272764
 20
-92.86192104630572
 30
0.0
 10
184.7106388419949
 20
-92.6743354733847
 30
0.0
 10
184.9678153896267
 20
-92.43731274763694
 30
0.0
 10
185.2253364470344
 20
-92.20046227677707
 30
0.0
 10
185.427046920763
 20
-91.92278739748537
 30
0.0
 10
185.5743248499159
 20
-91.60411585487391
 30
0.0
 10
185.6358198448955
 20
-91.47096282652869
 30
0.0
 10
185.6842234683949
 20
-91.33315891621022
 30
0.0
 10
185.7202247399656
 20
-91.191565398358
 30
0.0
  0
POLYLINE
  5
3D1
330
3CC
100
AcDbEntity
  8
Calque 1
 62
   179
420
  1842203
370
     9
100
AcDb2dPolyline
 66
     1
 10
0.0
 20
0.0
 30
0.0
  0
VERTEX
  5
3D2
330
3D1
100
AcDbEntity
  8
Calque 1
 62
   179
420
  1842203
370
     9
100
AcDbVertex
100
AcDb2dVertex
 10
183.0630208392497
 20
-93.1967845483796
 30
0.0
  0
VERTEX
  5
448
330
3D1
100
AcDbEntity
  8
0
100
AcDbVertex
100
AcDb2dVertex
 10
183.0630208392497
 20
-93.1967845483796
 30
0.0
  0
SEQEND
  5
3D3
330
3D1
100
AcDbEntity
  8
Calque 1
370
     9
  0
SPLINE
  5
3D4
330
3CC
100
AcDbEntity
  8
Calque 1
 62
   179
420
  1842203
370
     9
100
AcDbSpline
210
0.0
220
0.0
230
1.0
 70
    11
 71
     3
 72
    17
 73
    13
 74
     0
 42
0.0000000001
 43
0.0000000001
 40
0.0
 40
0.0
 40
0.0
 40
0.0
 40
1.0
 40
1.0
 40
1.0
 40
2.0
 40
2.0
 40
2.0
 40
3.0
 40
3.0
 40
3.0
 40
4.0
 40
4.0
 40
4.0
 40
4.0
 10
184.1570116322905
 20
-89.12984664510583
 30
0.0
 10
183.2597359212293
 20
-89.12984664510583
 30
0.0
 10
182.5328202942994
 20
-89.85659001714784
 30
0.0
 10
182.5329925491873
 20
-90.75369347332106
 30
0.0
 10
182.5329925491873
 20
-91.65096918438219
 30
0.0
 10
183.2597359212293
 20
-92.3778848113121
 30
0.0
 10
184.1570116322905
 20
-92.3778848113121
 30
0.0
 10
185.0542873433516
 20
-92.3778848113121
 30
0.0
 10
185.7808584605057
 20
-91.65096918438219
 30
0.0
 10
185.7808584605057
 20
-90.75369347332106
 30
0.0
 10
185.7808584605057
 20
-89.85659001714784
 30
0.0
 10
185.0541150884637
 20
-89.12984664510583
 30
0.0
 10
184.1570116322905
 20
-89.12984664510583
 30
0.0
  0
ENDBLK
  5
3CF
330
3CC
100
AcDbEntity
  8
0
100
AcDbBlockEnd
  0
BLOCK
  5
3D7
330
3D5
100
AcDbEntity
  8
0
100
AcDbBlockBegin
  2
block 27
 70
     0
 71
     0
 10
0.0
 20
0.0
 30
0.0
  3
block 27
  1

  0
INSERT
  5
3DA
330
3D5
100
AcDbEntity
  8
Calque 1
100
AcDbBlockReference
  2
block 28
 10
0.0
 20
0.0
 30
0.0
  0
SPLINE
  5
3E2
330
3D5
100
AcDbEntity
  8
Calque 1
 62
   179
420
  1842203
370
     9
100
AcDbSpline
210
0.0
220
0.0
230
1.0
 70
     8
 71
     3
 72
     8
 73
     4
 74
     0
 42
0.0000000001
 43
0.0000000001
 40
0.0
 40
0.0
 40
0.0
 40
0.0
 40
1.0
 40
1.0
 40
1.0
 40
1.0
 10
180.8497177846473
 20
-124.7466453060169
 30
0.0
 10
181.3595922528256
 20
-124.7466453060169
 30
0.0
 10
181.7726594740052
 20
-125.1597125271965
 30
0.0
 10
181.7726594740052
 20
-125.6695869953749
 30
0.0
  0
ENDBLK
  5
3D8
330
3D5
100
AcDbEntity
  8
0
100
AcDbBlockEnd
  0
BLOCK
  5
3DB
330
3D9
100
AcDbEntity
  8
0
100
AcDbBlockBegin
  2
block 28
 70
     0
 71
     0
 10
0.0
 20
0.0
 30
0.0
  3
block 28
  1

  0
SPLINE
  5
3DD
330
3D9
100
AcDbEntity
  8
Calque 1
 62
   179
420
  1842203
370
     9
100
AcDbSpline
210
0.0
220
0.0
230
1.0
 70
     8
 71
     3
 72
    62
 73
    58
 74
     0
 42
0.0000000001
 43
0.0000000001
 40
0.0
 40
0.0
 40
0.0
 40
0.0
 40
1.0
 40
1.0
 40
1.0
 40
2.0
 40
2.0
 40
2.0
 40
3.0
 40
3.0
 40
3.0
 40
4.0
 40
4.0
 40
4.0
 40
5.0
 40
5.0
 40
5.0
 40
6.0
 40
6.0
 40
6.0
 40
7.0
 40
7.0
 40
7.0
 40
8.0
 40
8.0
 40
8.0
 40
9.0
 40
9.0
 40
9.0
 40
10.0
 40
10.0
 40
10.0
 40
11.0
 40
11.0
 40
11.0
 40
12.0
 40
12.0
 40
12.0
 40
13.0
 40
13.0
 40
13.0
 40
14.0
 40
14.0
 40
14.0
 40
15.0
 40
15.0
 40
15.0
 40
16.0
 40
16.0
 40
16.0
 40
17.0
 40
17.0
 40
17.0
 40
18.0
 40
18.0
 40
18.0
 40
19.0
 40
19.0
 40
19.0
 40
19.0
 10
182.5739892125071
 20
-125.4625366201214
 30
0.0
 10
182.594487544167
 20
-125.5438409272093
 30
0.0
 10
182.6222205811185
 20
-125.6223891560908
 30
0.0
 10
182.6573605782498
 20
-125.6988703263176
 30
0.0
 10
182.7415932184319
 20
-125.8811159977137
 30
0.0
 10
182.8570039933236
 20
-126.0399350043558
 30
0.0
 10
183.0042819224765
 20
-126.1753273462437
 30
0.0
 10
183.1515598516293
 20
-126.3110641979073
 30
0.0
 10
183.3231257199758
 20
-126.41820673818
 30
0.0
 10
183.5196685470675
 20
-126.4977884963889
 30
0.0
 10
183.7156946094956
 20
-126.5773702545978
 30
0.0
 10
183.9260178276191
 20
-126.6169888788143
 30
0.0
 10
184.1502936916624
 20
-126.6169888788143
 30
0.0
 10
184.3745695557057
 20
-126.6169888788143
 30
0.0
 10
184.5860985580446
 20
-126.5773702545978
 30
0.0
 10
184.7845361889032
 20
-126.4977884963889
 30
0.0
 10
184.9831460746497
 20
-126.41820673818
 30
0.0
 10
185.1559177272115
 20
-126.3110641979073
 30
0.0
 10
185.3031956563643
 20
-126.1753273462437
 30
0.0
 10
185.4504735855172
 20
-126.0399350043558
 30
0.0
 10
185.5672623995121
 20
-125.8811159977137
 30
0.0
 10
185.653562098349
 20
-125.6988703263176
 30
0.0
 10
185.7402063069618
 20
-125.5166246549214
 30
0.0
 10
185.7834422838242
 20
-125.3202540827176
 30
0.0
 10
185.7834422838242
 20
-125.1101031194819
 30
0.0
 10
185.7834422838242
 20
-124.8296721619838
 30
0.0
 10
185.7074778782611
 20
-124.5750794376705
 30
0.0
 10
185.555549067135
 20
-124.345980436766
 30
0.0
 10
185.4037925108968
 20
-124.1172259456373
 30
0.0
 10
185.2063884093656
 20
-123.9349802742412
 30
0.0
 10
184.9633367625414
 20
-123.7995879323533
 30
0.0
 10
185.2063884093656
 20
-123.9349802742412
 30
0.0
 10
185.4037925108968
 20
-124.1172259456373
 30
0.0
 10
185.555549067135
 20
-124.345980436766
 30
0.0
 10
185.7074778782611
 20
-124.5750794376705
 30
0.0
 10
185.7834422838242
 20
-124.8296721619838
 30
0.0
 10
185.7834422838242
 20
-125.1101031194819
 30
0.0
 10
185.7834422838242
 20
-125.3202540827176
 30
0.0
 10
185.7402063069618
 20
-125.5166246549214
 30
0.0
 10
185.653562098349
 20
-125.6988703263176
 30
0.0
 10
185.5672623995121
 20
-125.8811159977137
 30
0.0
 10
185.4504735855172
 20
-126.0399350043558
 30
0.0
 10
185.3031956563643
 20
-126.1753273462437
 30
0.0
 10
185.1559177272115
 20
-126.3110641979073
 30
0.0
 10
184.9831460746497
 20
-126.41820673818
 30
0.0
 10
184.7845361889032
 20
-126.4977884963889
 30
0.0
 10
184.5860985580446
 20
-126.5773702545978
 30
0.0
 10
184.3745695557057
 20
-126.6169888788143
 30
0.0
 10
184.1502936916624
 20
-126.6169888788143
 30
0.0
 10
183.9260178276191
 20
-126.6169888788143
 30
0.0
 10
183.7156946094956
 20
-126.5773702545978
 30
0.0
 10
183.5196685470675
 20
-126.4977884963889
 30
0.0
 10
183.3231257199758
 20
-126.41820673818
 30
0.0
 10
183.1515598516293
 20
-126.3110641979073
 30
0.0
 10
183.0042819224765
 20
-126.1753273462437
 30
0.0
 10
182.8570039933236
 20
-126.0399350043558
 30
0.0
 10
182.7415932184319
 20
-125.8811159977137
 30
0.0
 10
182.6573605782498
 20
-125.6988703263176
 30
0.0
  0
POLYLINE
  5
3DE
330
3D9
100
AcDbEntity
  8
Calque 1
 62
   179
420
  1842203
370
     9
100
AcDb2dPolyline
 66
     1
 10
0.0
 20
0.0
 30
0.0
  0
VERTEX
  5
3DF
330
3DE
100
AcDbEntity
  8
Calque 1
 62
   179
420
  1842203
370
     9
100
AcDbVertex
100
AcDb2dVertex
 10
184.0943108530955
 20
-126.6097541735226
 30
0.0
  0
VERTEX
  5
449
330
3DE
100
AcDbEntity
  8
0
100
AcDbVertex
100
AcDb2dVertex
 10
184.0943108530955
 20
-126.6097541735226
 30
0.0
  0
SEQEND
  5
3E0
330
3DE
100
AcDbEntity
  8
Calque 1
370
     9
  0
SPLINE
  5
3E1
330
3D9
100
AcDbEntity
  8
Calque 1
 62
   179
420
  1842203
370
     9
100
AcDbSpline
210
0.0
220
0.0
230
1.0
 70
    11
 71
     3
 72
    17
 73
    13
 74
     0
 42
0.0000000001
 43
0.0000000001
 40
0.0
 40
0.0
 40
0.0
 40
0.0
 40
1.0
 40
1.0
 40
1.0
 40
2.0
 40
2.0
 40
2.0
 40
3.0
 40
3.0
 40
3.0
 40
4.0
 40
4.0
 40
4.0
 40
4.0
 10
183.468164335586
 20
-124.2832796575711
 30
0.0
 10
183.9816561564102
 20
-124.2832796575711
 30
0.0
 10
184.3974794557962
 20
-124.6987584471813
 30
0.0
 10
184.3974794557962
 20
-125.2120780131176
 30
0.0
 10
184.3974794557962
 20
-125.7253975790539
 30
0.0
 10
183.9816561564102
 20
-126.1412208784398
 30
0.0
 10
183.468164335586
 20
-126.1412208784398
 30
0.0
 10
182.9550170245376
 20
-126.1412208784398
 30
0.0
 10
182.5391937251516
 20
-125.7253975790539
 30
0.0
 10
182.5391937251516
 20
-125.2120780131176
 30
0.0
 10
182.5391937251516
 20
-124.6987584471813
 30
0.0
 10
182.9550170245376
 20
-124.2832796575711
 30
0.0
 10
183.468164335586
 20
-124.2832796575711
 30
0.0
  0
ENDBLK
  5
3DC
330
3D9
100
AcDbEntity
  8
0
100
AcDbBlockEnd
  0
BLOCK
  5
3E8
330
3E6
100
AcDbEntity
  8
0
100
AcDbBlockBegin
  2
block 29
 70
     0
 71
     0
 10
0.0
 20
0.0
 30
0.0
  3
block 29
  1

  0
SPLINE
  5
3EA
330
3E6
100
AcDbEntity
  8
Calque 1
 62
   179
420
  1842203
370
     9
100
AcDbSpline
210
0.0
220
0.0
230
1.0
 70
    11
 71
     3
 72
    17
 73
    13
 74
     0
 42
0.0000000001
 43
0.0000000001
 40
0.0
 40
0.0
 40
0.0
 40
0.0
 40
1.0
 40
1.0
 40
1.0
 40
2.0
 40
2.0
 40
2.0
 40
3.0
 40
3.0
 40
3.0
 40
4.0
 40
4.0
 40
4.0
 40
4.0
 10
325.4129099042356
 20
-114.4602724202949
 30
0.0
 10
326.3093243408572
 20
-114.4602724202949
 30
0.0
 10
327.0362399677871
 20
-115.1868435374491
 30
0.0
 10
327.0362399677871
 20
-116.0832579740707
 30
0.0
 10
327.0362399677871
 20
-116.9796724106923
 30
0.0
 10
326.3093243408572
 20
-117.7062435278464
 30
0.0
 10
325.4129099042356
 20
-117.7062435278464
 30
0.0
 10
324.5171844871656
 20
-117.7062435278464
 30
0.0
 10
323.7902688602356
 20
-116.9796724106923
 30
0.0
 10
323.7902688602356
 20
-116.0832579740707
 30
0.0
 10
323.7902688602356
 20
-115.1868435374491
 30
0.0
 10
324.5171844871656
 20
-114.4602724202949
 30
0.0
 10
325.4129099042356
 20
-114.4602724202949
 30
0.0
  0
SPLINE
  5
3EB
330
3E6
100
AcDbEntity
  8
Calque 1
 62
   179
420
  1842203
370
     9
100
AcDbSpline
210
0.0
220
0.0
230
1.0
 70
    11
 71
     3
 72
    17
 73
    13
 74
     0
 42
0.0000000001
 43
0.0000000001
 40
0.0
 40
0.0
 40
0.0
 40
0.0
 40
1.0
 40
1.0
 40
1.0
 40
2.0
 40
2.0
 40
2.0
 40
3.0
 40
3.0
 40
3.0
 40
4.0
 40
4.0
 40
4.0
 40
4.0
 10
325.4129099042356
 20
-105.1974380784633
 30
0.0
 10
326.3093243408572
 20
-105.1974380784633
 30
0.0
 10
327.0362399677871
 20
-105.9236646858417
 30
0.0
 10
327.0362399677871
 20
-106.8200791224633
 30
0.0
 10
327.0362399677871
 20
-107.7168380688607
 30
0.0
 10
326.3093243408572
 20
-108.443064676239
 30
0.0
 10
325.4129099042356
 20
-108.443064676239
 30
0.0
 10
324.5171844871656
 20
-108.443064676239
 30
0.0
 10
323.7902688602356
 20
-107.7168380688607
 30
0.0
 10
323.7902688602356
 20
-106.8200791224633
 30
0.0
 10
323.7902688602356
 20
-105.9236646858417
 30
0.0
 10
324.5171844871656
 20
-105.1974380784633
 30
0.0
 10
325.4129099042356
 20
-105.1974380784633
 30
0.0
  0
SPLINE
  5
3EC
330
3E6
100
AcDbEntity
  8
Calque 1
 62
   179
420
  1842203
370
     9
100
AcDbSpline
210
0.0
220
0.0
230
1.0
 70
    11
 71
     3
 72
    17
 73
    13
 74
     0
 42
0.0000000001
 43
0.0000000001
 40
0.0
 40
0.0
 40
0.0
 40
0.0
 40
1.0
 40
1.0
 40
1.0
 40
2.0
 40
2.0
 40
2.0
 40
3.0
 40
3.0
 40
3.0
 40
4.0
 40
4.0
 40
4.0
 40
4.0
 10
324.2026470618637
 20
-81.24298434780412
 30
0.0
 10
325.7670659537541
 20
-81.24298434780412
 30
0.0
 10
327.0362399677871
 20
-82.51164159717352
 30
0.0
 10
327.0362399677871
 20
-84.07640499883972
 30
0.0
 10
327.0362399677871
 20
-85.64151291028172
 30
0.0
 10
325.7670659537541
 20
-86.90982564987532
 30
0.0
 10
324.2026470618637
 20
-86.90982564987532
 30
0.0
 10
322.6382281699733
 20
-86.90982564987532
 30
0.0
 10
321.369398665716
 20
-85.64151291028172
 30
0.0
 10
321.369398665716
 20
-84.07640499883972
 30
0.0
 10
321.369398665716
 20
-82.51164159717352
 30
0.0
 10
322.6382281699733
 20
-81.24298434780412
 30
0.0
 10
324.2026470618637
 20
-81.24298434780412
 30
0.0
  0
POLYLINE
  5
3ED
330
3E6
100
AcDbEntity
  8
Calque 1
 62
   179
420
  1842203
370
     9
100
AcDb2dPolyline
 66
     1
 10
0.0
 20
0.0
 30
0.0
  0
VERTEX
  5
3EE
330
3ED
100
AcDbEntity
  8
Calque 1
 62
   179
420
  1842203
370
     9
100
AcDbVertex
100
AcDb2dVertex
 10
321.3628529799759
 20
-127.564046252478
 30
0.0
  0
VERTEX
  5
3EF
330
3ED
100
AcDbEntity
  8
Calque 1
 62
   179
420
  1842203
370
     9
100
AcDbVertex
100
AcDb2dVertex
 10
327.0355509482356
 20
-127.564046252478
 30
0.0
  0
SEQEND
  5
3F0
330
3ED
100
AcDbEntity
  8
Calque 1
370
     9
  0
INSERT
  5
3F2
330
3E6
100
AcDbEntity
  8
Calque 1
100
AcDbBlockReference
  2
block 30
 10
0.0
 20
0.0
 30
0.0
  0
INSERT
  5
3FB
330
3E6
100
AcDbEntity
  8
Calque 1
100
AcDbBlockReference
  2
block 31
 10
0.0
 20
0.0
 30
0.0
  0
INSERT
  5
404
330
3E6
100
AcDbEntity
  8
Calque 1
100
AcDbBlockReference
  2
block 32
 10
0.0
 20
0.0
 30
0.0
  0
SPLINE
  5
40F
330
3E6
100
AcDbEntity
  8
Calque 1
 62
   179
420
  1842203
370
     9
100
AcDbSpline
210
0.0
220
0.0
230
1.0
 70
    11
 71
     3
 72
    26
 73
    22
 74
     0
 42
0.0000000001
 43
0.0000000001
 40
0.0
 40
0.0
 40
0.0
 40
0.0
 40
1.0
 40
1.0
 40
1.0
 40
2.0
 40
2.0
 40
2.0
 40
3.0
 40
3.0
 40
3.0
 40
4.0
 40
4.0
 40
4.0
 40
5.0
 40
5.0
 40
5.0
 40
6.0
 40
6.0
 40
6.0
 40
7.0
 40
7.0
 40
7.0
 40
7.0
 10
327.0345174189082
 20
-134.5307229386281
 30
0.0
 10
327.0345174189082
 20
-134.5307229386281
 30
0.0
 10
321.3497616084956
 20
-134.5307229386281
 30
0.0
 10
321.3497616084956
 20
-134.5307229386281
 30
0.0
 10
321.3497616084956
 20
-134.5307229386281
 30
0.0
 10
324.1485590270637
 20
-134.5307229386281
 30
0.0
 10
324.1485590270637
 20
-134.5307229386281
 30
0.0
 10
324.1485590270637
 20
-134.5307229386281
 30
0.0
 10
321.3497616084956
 20
-131.3677786870435
 30
0.0
 10
321.3497616084956
 20
-131.3677786870435
 30
0.0
 10
321.3497616084956
 20
-131.3677786870435
 30
0.0
 10
324.1485590270637
 20
-134.5307229386281
 30
0.0
 10
324.1485590270637
 20
-134.5307229386281
 30
0.0
 10
324.1485590270637
 20
-134.5307229386281
 30
0.0
 10
327.0345174189082
 20
-131.3519312373569
 30
0.0
 10
327.0345174189082
 20
-131.3519312373569
 30
0.0
 10
327.0345174189082
 20
-131.3519312373569
 30
0.0
 10
324.1485590270637
 20
-134.5307229386281
 30
0.0
 10
324.1485590270637
 20
-134.5307229386281
 30
0.0
 10
324.1485590270637
 20
-134.5307229386281
 30
0.0
 10
327.0345174189082
 20
-134.5307229386281
 30
0.0
 10
327.0345174189082
 20
-134.5307229386281
 30
0.0
  0
SPLINE
  5
410
330
3E6
100
AcDbEntity
  8
Calque 1
 62
   179
420
  1842203
370
     9
100
AcDbSpline
210
0.0
220
0.0
230
1.0
 70
     8
 71
     3
 72
    29
 73
    25
 74
     0
 42
0.0000000001
 43
0.0000000001
 40
0.0
 40
0.0
 40
0.0
 40
0.0
 40
1.0
 40
1.0
 40
1.0
 40
2.0
 40
2.0
 40
2.0
 40
3.0
 40
3.0
 40
3.0
 40
4.0
 40
4.0
 40
4.0
 40
5.0
 40
5.0
 40
5.0
 40
6.0
 40
6.0
 40
6.0
 40
7.0
 40
7.0
 40
7.0
 40
8.0
 40
8.0
 40
8.0
 40
8.0
 10
327.0345174189082
 20
-109.3887440107995
 30
0.0
 10
327.0345174189082
 20
-109.6033736011206
 30
0.0
 10
326.9914536969337
 20
-109.8035337808581
 30
0.0
 10
326.9053262529846
 20
-109.9899135695639
 30
0.0
 10
326.8191988090356
 20
-110.1762933582696
 30
0.0
 10
326.7027545048165
 20
-110.3392464822212
 30
0.0
 10
326.5556488305515
 20
-110.4791174511944
 30
0.0
 10
326.4092321758382
 20
-110.6189884201677
 30
0.0
 10
326.2376663074916
 20
-110.7295760581982
 30
0.0
 10
326.0419847548394
 20
-110.8112248750619
 30
0.0
 10
325.8463032021872
 20
-110.8928736919256
 30
0.0
 10
325.6368412585031
 20
-110.9335258454695
 30
0.0
 10
325.4129099042356
 20
-110.9335258454695
 30
0.0
 10
325.1893230597439
 20
-110.9335258454695
 30
0.0
 10
324.9795166062841
 20
-110.8928736919256
 30
0.0
 10
324.7838350536318
 20
-110.8112248750619
 30
0.0
 10
324.5881535009796
 20
-110.7295760581982
 30
0.0
 10
324.4172766521847
 20
-110.6189884201677
 30
0.0
 10
324.2705154876955
 20
-110.4791174511944
 30
0.0
 10
324.1237543232064
 20
-110.3392464822212
 30
0.0
 10
324.0073100189873
 20
-110.1762933582696
 30
0.0
 10
323.9208380652624
 20
-109.9899135695639
 30
0.0
 10
323.8347106213134
 20
-109.8035337808581
 30
0.0
 10
323.7916468993388
 20
-109.6033736011206
 30
0.0
 10
323.7916468993388
 20
-109.3887440107995
 30
0.0
  0
SPLINE
  5
411
330
3E6
100
AcDbEntity
  8
Calque 1
 62
   179
420
  1842203
370
     9
100
AcDbSpline
210
0.0
220
0.0
230
1.0
 70
     8
 71
     3
 72
    29
 73
    25
 74
     0
 42
0.0000000001
 43
0.0000000001
 40
0.0
 40
0.0
 40
0.0
 40
0.0
 40
1.0
 40
1.0
 40
1.0
 40
2.0
 40
2.0
 40
2.0
 40
3.0
 40
3.0
 40
3.0
 40
4.0
 40
4.0
 40
4.0
 40
5.0
 40
5.0
 40
5.0
 40
6.0
 40
6.0
 40
6.0
 40
7.0
 40
7.0
 40
7.0
 40
8.0
 40
8.0
 40
8.0
 40
8.0
 10
323.7916468993388
 20
-109.3887440107995
 30
0.0
 10
323.7916468993388
 20
-109.6033736011206
 30
0.0
 10
323.8347106213134
 20
-109.8035337808581
 30
0.0
 10
323.9208380652624
 20
-109.9899135695639
 30
0.0
 10
324.0073100189873
 20
-110.1762933582696
 30
0.0
 10
324.1237543232064
 20
-110.3392464822212
 30
0.0
 10
324.2705154876955
 20
-110.4791174511944
 30
0.0
 10
324.4172766521847
 20
-110.6189884201677
 30
0.0
 10
324.5881535009796
 20
-110.7295760581982
 30
0.0
 10
324.7838350536318
 20
-110.8112248750619
 30
0.0
 10
324.9795166062841
 20
-110.8928736919256
 30
0.0
 10
325.1893230597439
 20
-110.9335258454695
 30
0.0
 10
325.4129099042356
 20
-110.9335258454695
 30
0.0
 10
325.6368412585031
 20
-110.9335258454695
 30
0.0
 10
325.8463032021872
 20
-110.8928736919256
 30
0.0
 10
326.0419847548394
 20
-110.8112248750619
 30
0.0
 10
326.2376663074916
 20
-110.7295760581982
 30
0.0
 10
326.4092321758382
 20
-110.6189884201677
 30
0.0
 10
326.5556488305515
 20
-110.4791174511944
 30
0.0
 10
326.7027545048165
 20
-110.3392464822212
 30
0.0
 10
326.8191988090356
 20
-110.1762933582696
 30
0.0
 10
326.9053262529846
 20
-109.9899135695639
 30
0.0
 10
326.9914536969337
 20
-109.8035337808581
 30
0.0
 10
327.0345174189082
 20
-109.6033736011206
 30
0.0
 10
327.0345174189082
 20
-109.3887440107995
 30
0.0
  0
INSERT
  5
413
330
3E6
100
AcDbEntity
  8
Calque 1
100
AcDbBlockReference
  2
block 33
 10
0.0
 20
0.0
 30
0.0
  0
INSERT
  5
41C
330
3E6
100
AcDbEntity
  8
Calque 1
100
AcDbBlockReference
  2
block 34
 10
0.0
 20
0.0
 30
0.0
  0
INSERT
  5
425
330
3E6
100
AcDbEntity
  8
Calque 1
100
AcDbBlockReference
  2
block 35
 10
0.0
 20
0.0
 30
0.0
  0
INSERT
  5
42E
330
3E6
100
AcDbEntity
  8
Calque 1
100
AcDbBlockReference
  2
block 36
 10
0.0
 20
0.0
 30
0.0
  0
SPLINE
  5
43B
330
3E6
100
AcDbEntity
  8
Calque 1
 62
   179
420
  1842203
370
     9
100
AcDbSpline
210
0.0
220
0.0
230
1.0
 70
     8
 71
     3
 72
    26
 73
    22
 74
     0
 42
0.0000000001
 43
0.0000000001
 40
0.0
 40
0.0
 40
0.0
 40
0.0
 40
1.0
 40
1.0
 40
1.0
 40
2.0
 40
2.0
 40
2.0
 40
3.0
 40
3.0
 40
3.0
 40
4.0
 40
4.0
 40
4.0
 40
5.0
 40
5.0
 40
5.0
 40
6.0
 40
6.0
 40
6.0
 40
7.0
 40
7.0
 40
7.0
 40
7.0
 10
326.7602876373744
 20
-113.4942670089625
 30
0.0
 10
326.9301309568419
 20
-113.3230456503918
 30
0.0
 10
327.034861928684
 20
-113.087745473523
 30
0.0
 10
327.034861928684
 20
-112.8276405927969
 30
0.0
 10
327.034861928684
 20
-112.3046747531383
 30
0.0
 10
326.6111149044547
 20
-111.880927728909
 30
0.0
 10
326.0881490647961
 20
-111.880927728909
 30
0.0
 10
325.5644942055859
 20
-111.880927728909
 30
0.0
 10
325.1410916911324
 20
-112.3046747531383
 30
0.0
 10
325.1410916911324
 20
-112.8276405927969
 30
0.0
 10
325.1410916911324
 20
-112.8276405927969
 30
0.0
 10
325.1410916911324
 20
-112.8362533371918
 30
0.0
 10
325.1410916911324
 20
-112.8362533371918
 30
0.0
 10
325.1410916911324
 20
-113.2103909537064
 30
0.0
 10
324.8382675982076
 20
-113.5132150466313
 30
0.0
 10
324.464129981693
 20
-113.5132150466313
 30
0.0
 10
324.0906813847299
 20
-113.5132150466313
 30
0.0
 10
323.7875127820293
 20
-113.2103909537064
 30
0.0
 10
323.7875127820293
 20
-112.8362533371918
 30
0.0
 10
323.7875127820293
 20
-112.6498735484861
 30
0.0
 10
323.8629604229287
 20
-112.4810637583459
 30
0.0
 10
323.9845723737847
 20
-112.3587627879383
 30
0.0
  0
SPLINE
  5
43C
330
3E6
100
AcDbEntity
  8
Calque 1
 62
   179
420
  1842203
370
     9
100
AcDbSpline
210
0.0
220
0.0
230
1.0
 70
    11
 71
     3
 72
    17
 73
    13
 74
     0
 42
0.0000000001
 43
0.0000000001
 40
0.0
 40
0.0
 40
0.0
 40
0.0
 40
1.0
 40
1.0
 40
1.0
 40
2.0
 40
2.0
 40
2.0
 40
3.0
 40
3.0
 40
3.0
 40
4.0
 40
4.0
 40
4.0
 40
4.0
 10
324.2026470618637
 20
-74.19500335456611
 30
0.0
 10
325.7670659537541
 20
-74.19500335456611
 30
0.0
 10
327.0362399677871
 20
-75.4634883490476
 30
0.0
 10
327.0362399677871
 20
-77.02842400560169
 30
0.0
 10
327.0362399677871
 20
-78.59353191704369
 30
0.0
 10
325.7670659537541
 20
-79.86184465663729
 30
0.0
 10
324.2026470618637
 20
-79.86184465663729
 30
0.0
 10
322.6382281699733
 20
-79.86184465663729
 30
0.0
 10
321.369398665716
 20
-78.59353191704369
 30
0.0
 10
321.369398665716
 20
-77.02842400560169
 30
0.0
 10
321.369398665716
 20
-75.4634883490476
 30
0.0
 10
322.6382281699733
 20
-74.19500335456611
 30
0.0
 10
324.2026470618637
 20
-74.19500335456611
 30
0.0
  0
SPLINE
  5
43D
330
3E6
100
AcDbEntity
  8
Calque 1
 62
   179
420
  1842203
370
     9
100
AcDbSpline
210
0.0
220
0.0
230
1.0
 70
    11
 71
     3
 72
    17
 73
    13
 74
     0
 42
0.0000000001
 43
0.0000000001
 40
0.0
 40
0.0
 40
0.0
 40
0.0
 40
1.0
 40
1.0
 40
1.0
 40
2.0
 40
2.0
 40
2.0
 40
3.0
 40
3.0
 40
3.0
 40
4.0
 40
4.0
 40
4.0
 40
4.0
 10
324.2026470618637
 20
-67.15236226285293
 30
0.0
 10
325.7670659537541
 20
-67.15236226285293
 30
0.0
 10
327.0362399677871
 20
-68.42101951222232
 30
0.0
 10
327.0362399677871
 20
-69.98578291388851
 30
0.0
 10
327.0362399677871
 20
-71.55089082533051
 30
0.0
 10
325.7670659537541
 20
-72.81903131003621
 30
0.0
 10
324.2026470618637
 20
-72.81903131003621
 30
0.0
 10
322.6382281699733
 20
-72.81903131003621
 30
0.0
 10
321.369398665716
 20
-71.55089082533051
 30
0.0
 10
321.369398665716
 20
-69.98578291388851
 30
0.0
 10
321.369398665716
 20
-68.42101951222232
 30
0.0
 10
322.6382281699733
 20
-67.15236226285293
 30
0.0
 10
324.2026470618637
 20
-67.15236226285293
 30
0.0
  0
ENDBLK
  5
3E9
330
3E6
100
AcDbEntity
  8
0
100
AcDbBlockEnd
  0
BLOCK
  5
3F3
330
3F1
100
AcDbEntity
  8
0
100
AcDbBlockBegin
  2
block 30
 70
     0
 71
     0
 10
0.0
 20
0.0
 30
0.0
  3
block 30
  1

  0
SPLINE
  5
3F5
330
3F1
100
AcDbEntity
  8
Calque 1
 62
   179
420
  1842203
370
     9
100
AcDbSpline
210
0.0
220
0.0
230
1.0
 70
    11
 71
     3
 72
    17
 73
    13
 74
     0
 42
0.0000000001
 43
0.0000000001
 40
0.0
 40
0.0
 40
0.0
 40
0.0
 40
1.0
 40
1.0
 40
1.0
 40
2.0
 40
2.0
 40
2.0
 40
3.0
 40
3.0
 40
3.0
 40
4.0
 40
4.0
 40
4.0
 40
4.0
 10
325.4129099042356
 20
-118.6567459992681
 30
0.0
 10
326.3093243408572
 20
-118.6567459992681
 30
0.0
 10
327.0362399677871
 20
-119.3833171164222
 30
0.0
 10
327.0362399677871
 20
-120.2797315530438
 30
0.0
 10
327.0362399677871
 20
-121.1761459896654
 30
0.0
 10
326.3093243408572
 20
-121.9023725970438
 30
0.0
 10
325.4129099042356
 20
-121.9023725970438
 30
0.0
 10
324.5171844871656
 20
-121.9023725970438
 30
0.0
 10
323.7902688602356
 20
-121.1761459896654
 30
0.0
 10
323.7902688602356
 20
-120.2797315530438
 30
0.0
 10
323.7902688602356
 20
-119.3833171164222
 30
0.0
 10
324.5171844871656
 20
-118.6567459992681
 30
0.0
 10
325.4129099042356
 20
-118.6567459992681
 30
0.0
  0
POLYLINE
  5
3F6
330
3F1
100
AcDbEntity
  8
Calque 1
 62
   179
420
  1842203
370
     9
100
AcDb2dPolyline
 66
     1
 10
0.0
 20
0.0
 30
0.0
  0
VERTEX
  5
3F7
330
3F6
100
AcDbEntity
  8
Calque 1
 62
   179
420
  1842203
370
     9
100
AcDbVertex
100
AcDb2dVertex
 10
321.3628529799759
 20
-118.6567459992681
 30
0.0
  0
VERTEX
  5
3F8
330
3F6
100
AcDbEntity
  8
Calque 1
 62
   179
420
  1842203
370
     9
100
AcDbVertex
100
AcDb2dVertex
 10
327.0345174189082
 20
-118.6567459992681
 30
0.0
  0
SEQEND
  5
3F9
330
3F6
100
AcDbEntity
  8
Calque 1
370
     9
  0
ENDBLK
  5
3F4
330
3F1
100
AcDbEntity
  8
0
100
AcDbBlockEnd
  0
BLOCK
  5
3FC
330
3FA
100
AcDbEntity
  8
0
100
AcDbBlockBegin
  2
block 31
 70
     0
 71
     0
 10
0.0
 20
0.0
 30
0.0
  3
block 31
  1

  0
SPLINE
  5
3FE
330
3FA
100
AcDbEntity
  8
Calque 1
 62
   179
420
  1842203
370
     9
100
AcDbSpline
210
0.0
220
0.0
230
1.0
 70
    11
 71
     3
 72
    17
 73
    13
 74
     0
 42
0.0000000001
 43
0.0000000001
 40
0.0
 40
0.0
 40
0.0
 40
0.0
 40
1.0
 40
1.0
 40
1.0
 40
2.0
 40
2.0
 40
2.0
 40
3.0
 40
3.0
 40
3.0
 40
4.0
 40
4.0
 40
4.0
 40
4.0
 10
325.413943433563
 20
-104.2486581559207
 30
0.0
 10
324.5178735067172
 20
-104.2486581559207
 30
0.0
 10
323.7909578797872
 20
-103.5220870387666
 30
0.0
 10
323.7909578797872
 20
-102.6256726021449
 30
0.0
 10
323.7909578797872
 20
-101.7292581655233
 30
0.0
 10
324.5178735067172
 20
-101.0026870483692
 30
0.0
 10
325.413943433563
 20
-101.0026870483692
 30
0.0
 10
326.3100133604088
 20
-101.0026870483692
 30
0.0
 10
327.0369289873387
 20
-101.7292581655233
 30
0.0
 10
327.0369289873387
 20
-102.6256726021449
 30
0.0
 10
327.0369289873387
 20
-103.5220870387666
 30
0.0
 10
326.3100133604088
 20
-104.2486581559207
 30
0.0
 10
325.413943433563
 20
-104.2486581559207
 30
0.0
  0
POLYLINE
  5
3FF
330
3FA
100
AcDbEntity
  8
Calque 1
 62
   179
420
  1842203
370
     9
100
AcDb2dPolyline
 66
     1
 10
0.0
 20
0.0
 30
0.0
  0
VERTEX
  5
400
330
3FF
100
AcDbEntity
  8
Calque 1
 62
   179
420
  1842203
370
     9
100
AcDbVertex
100
AcDb2dVertex
 10
329.4643448675986
 20
-104.2486581559207
 30
0.0
  0
VERTEX
  5
401
330
3FF
100
AcDbEntity
  8
Calque 1
 62
   179
420
  1842203
370
     9
100
AcDbVertex
100
AcDb2dVertex
 10
323.7923359188904
 20
-104.2486581559207
 30
0.0
  0
SEQEND
  5
402
330
3FF
100
AcDbEntity
  8
Calque 1
370
     9
  0
ENDBLK
  5
3FD
330
3FA
100
AcDbEntity
  8
0
100
AcDbBlockEnd
  0
BLOCK
  5
405
330
403
100
AcDbEntity
  8
0
100
AcDbBlockBegin
  2
block 32
 70
     0
 71
     0
 10
0.0
 20
0.0
 30
0.0
  3
block 32
  1

  0
POLYLINE
  5
407
330
403
100
AcDbEntity
  8
Calque 1
 62
   179
420
  1842203
370
     9
100
AcDb2dPolyline
 66
     1
 10
0.0
 20
0.0
 30
0.0
  0
VERTEX
  5
408
330
407
100
AcDbEntity
  8
Calque 1
 62
   179
420
  1842203
370
     9
100
AcDbVertex
100
AcDb2dVertex
 10
323.7957810166484
 20
-122.8508080098106
 30
0.0
  0
VERTEX
  5
409
330
407
100
AcDbEntity
  8
Calque 1
 62
   179
420
  1842203
370
     9
100
AcDbVertex
100
AcDb2dVertex
 10
327.0345174189082
 20
-122.8508080098106
 30
0.0
  0
SEQEND
  5
40A
330
407
100
AcDbEntity
  8
Calque 1
370
     9
  0
POLYLINE
  5
40B
330
403
100
AcDbEntity
  8
Calque 1
 62
   179
420
  1842203
370
     9
100
AcDb2dPolyline
 66
     1
 10
0.0
 20
0.0
 30
0.0
  0
VERTEX
  5
40C
330
40B
100
AcDbEntity
  8
Calque 1
 62
   179
420
  1842203
370
     9
100
AcDbVertex
100
AcDb2dVertex
 10
322.1021709588344
 20
-122.8508080098106
 30
0.0
  0
VERTEX
  5
40D
330
40B
100
AcDbEntity
  8
Calque 1
 62
   179
420
  1842203
370
     9
100
AcDbVertex
100
AcDb2dVertex
 10
322.1634936989262
 20
-122.8508080098106
 30
0.0
  0
SEQEND
  5
40E
330
40B
100
AcDbEntity
  8
Calque 1
370
     9
  0
ENDBLK
  5
406
330
403
100
AcDbEntity
  8
0
100
AcDbBlockEnd
  0
BLOCK
  5
414
330
412
100
AcDbEntity
  8
0
100
AcDbBlockBegin
  2
block 33
 70
     0
 71
     0
 10
0.0
 20
0.0
 30
0.0
  3
block 33
  1

  0
SPLINE
  5
416
330
412
100
AcDbEntity
  8
Calque 1
 62
   179
420
  1842203
370
     9
100
AcDbSpline
210
0.0
220
0.0
230
1.0
 70
     8
 71
     3
 72
    62
 73
    58
 74
     0
 42
0.0000000001
 43
0.0000000001
 40
0.0
 40
0.0
 40
0.0
 40
0.0
 40
1.0
 40
1.0
 40
1.0
 40
2.0
 40
2.0
 40
2.0
 40
3.0
 40
3.0
 40
3.0
 40
4.0
 40
4.0
 40
4.0
 40
5.0
 40
5.0
 40
5.0
 40
6.0
 40
6.0
 40
6.0
 40
7.0
 40
7.0
 40
7.0
 40
8.0
 40
8.0
 40
8.0
 40
9.0
 40
9.0
 40
9.0
 40
10.0
 40
10.0
 40
10.0
 40
11.0
 40
11.0
 40
11.0
 40
12.0
 40
12.0
 40
12.0
 40
13.0
 40
13.0
 40
13.0
 40
14.0
 40
14.0
 40
14.0
 40
15.0
 40
15.0
 40
15.0
 40
16.0
 40
16.0
 40
16.0
 40
17.0
 40
17.0
 40
17.0
 40
18.0
 40
18.0
 40
18.0
 40
19.0
 40
19.0
 40
19.0
 40
19.0
 10
327.001099970656
 20
-129.6693454923684
 30
0.0
 10
326.9804293841082
 20
-129.5883856950563
 30
0.0
 10
326.9528686020445
 20
-129.509492956399
 30
0.0
 10
326.9173840951375
 20
-129.433356295948
 30
0.0
 10
326.8333237098432
 20
-129.2511106245518
 30
0.0
 10
326.7179129349515
 20
-129.091947108134
 30
0.0
 10
326.5704627509107
 20
-128.9565547662461
 30
0.0
 10
326.4233570766458
 20
-128.8211624243582
 30
0.0
 10
326.2514466985235
 20
-128.7136753743098
 30
0.0
 10
326.0554206360954
 20
-128.6344381258767
 30
0.0
 10
325.8593945736674
 20
-128.5548563676678
 30
0.0
 10
325.648899100656
 20
-128.5152377434512
 30
0.0
 10
325.4246232366127
 20
-128.5152377434512
 30
0.0
 10
325.2003473725694
 20
-128.5152377434512
 30
0.0
 10
324.9891628800063
 20
-128.5548563676678
 30
0.0
 10
324.7903807393719
 20
-128.6344381258767
 30
0.0
 10
324.5915985987376
 20
-128.7136753743098
 30
0.0
 10
324.4186546912879
 20
-128.8211624243582
 30
0.0
 10
324.2718935267987
 20
-128.9565547662461
 30
0.0
 10
324.124443342758
 20
-129.091947108134
 30
0.0
 10
324.0076545287631
 20
-129.2511106245518
 30
0.0
 10
323.9211825750382
 20
-129.433356295948
 30
0.0
 10
323.8350551310892
 20
-129.6156019673442
 30
0.0
 10
323.7916468993388
 20
-129.8116280297722
 30
0.0
 10
323.7916468993388
 20
-130.0217789930079
 30
0.0
 10
323.7916468993388
 20
-130.302209950506
 30
0.0
 10
323.867439050014
 20
-130.5571471845951
 30
0.0
 10
324.0193678611401
 20
-130.7859016757238
 30
0.0
 10
324.1712966722662
 20
-131.0146561668524
 30
0.0
 10
324.3687007737974
 20
-131.1969018382486
 30
0.0
 10
324.6115801657337
 20
-131.3326386899123
 30
0.0
 10
324.3687007737974
 20
-131.1969018382486
 30
0.0
 10
324.1712966722662
 20
-131.0146561668524
 30
0.0
 10
324.0193678611401
 20
-130.7859016757238
 30
0.0
 10
323.867439050014
 20
-130.5571471845951
 30
0.0
 10
323.7916468993388
 20
-130.302209950506
 30
0.0
 10
323.7916468993388
 20
-130.0217789930079
 30
0.0
 10
323.7916468993388
 20
-129.8116280297722
 30
0.0
 10
323.8350551310892
 20
-129.6156019673442
 30
0.0
 10
323.9211825750382
 20
-129.433356295948
 30
0.0
 10
324.0076545287631
 20
-129.2511106245518
 30
0.0
 10
324.124443342758
 20
-129.091947108134
 30
0.0
 10
324.2718935267987
 20
-128.9565547662461
 30
0.0
 10
324.4186546912879
 20
-128.8211624243582
 30
0.0
 10
324.5915985987376
 20
-128.7136753743098
 30
0.0
 10
324.7903807393719
 20
-128.6344381258767
 30
0.0
 10
324.9891628800063
 20
-128.5548563676678
 30
0.0
 10
325.2003473725694
 20
-128.5152377434512
 30
0.0
 10
325.4246232366127
 20
-128.5152377434512
 30
0.0
 10
325.648899100656
 20
-128.5152377434512
 30
0.0
 10
325.8593945736674
 20
-128.5548563676678
 30
0.0
 10
326.0554206360954
 20
-128.6344381258767
 30
0.0
 10
326.2514466985235
 20
-128.7136753743098
 30
0.0
 10
326.4233570766458
 20
-128.8211624243582
 30
0.0
 10
326.5704627509107
 20
-128.9565547662461
 30
0.0
 10
326.7179129349515
 20
-129.091947108134
 30
0.0
 10
326.8333237098432
 20
-129.2511106245518
 30
0.0
 10
326.9173840951375
 20
-129.433356295948
 30
0.0
  0
POLYLINE
  5
417
330
412
100
AcDbEntity
  8
Calque 1
 62
   179
420
  1842203
370
     9
100
AcDb2dPolyline
 66
     1
 10
0.0
 20
0.0
 30
0.0
  0
VERTEX
  5
418
330
417
100
AcDbEntity
  8
Calque 1
 62
   179
420
  1842203
370
     9
100
AcDbVertex
100
AcDb2dVertex
 10
325.4804338202916
 20
-128.5221279389671
 30
0.0
  0
VERTEX
  5
44A
330
417
100
AcDbEntity
  8
0
100
AcDbVertex
100
AcDb2dVertex
 10
325.4804338202916
 20
-128.5221279389671
 30
0.0
  0
SEQEND
  5
419
330
417
100
AcDbEntity
  8
Calque 1
370
     9
  0
SPLINE
  5
41A
330
412
100
AcDbEntity
  8
Calque 1
 62
   179
420
  1842203
370
     9
100
AcDbSpline
210
0.0
220
0.0
230
1.0
 70
    11
 71
     3
 72
    17
 73
    13
 74
     0
 42
0.0000000001
 43
0.0000000001
 40
0.0
 40
0.0
 40
0.0
 40
0.0
 40
1.0
 40
1.0
 40
1.0
 40
2.0
 40
2.0
 40
2.0
 40
3.0
 40
3.0
 40
3.0
 40
4.0
 40
4.0
 40
4.0
 40
4.0
 10
326.1067525926891
 20
-130.8489469646945
 30
0.0
 10
325.5934330267528
 20
-130.8489469646945
 30
0.0
 10
325.177265217591
 20
-130.4331236653085
 30
0.0
 10
325.177265217591
 20
-129.9198040993722
 30
0.0
 10
325.177265217591
 20
-129.4064845334359
 30
0.0
 10
325.5934330267528
 20
-128.99066123405
 30
0.0
 10
326.1067525926891
 20
-128.99066123405
 30
0.0
 10
326.6200721586254
 20
-128.99066123405
 30
0.0
 10
327.0355509482356
 20
-129.4064845334359
 30
0.0
 10
327.0355509482356
 20
-129.9198040993722
 30
0.0
 10
327.0355509482356
 20
-130.4331236653085
 30
0.0
 10
326.6200721586254
 20
-130.8489469646945
 30
0.0
 10
326.1067525926891
 20
-130.8489469646945
 30
0.0
  0
ENDBLK
  5
415
330
412
100
AcDbEntity
  8
0
100
AcDbBlockEnd
  0
BLOCK
  5
41D
330
41B
100
AcDbEntity
  8
0
100
AcDbBlockBegin
  2
block 34
 70
     0
 71
     0
 10
0.0
 20
0.0
 30
0.0
  3
block 34
  1

  0
SPLINE
  5
41F
330
41B
100
AcDbEntity
  8
Calque 1
 62
   179
420
  1842203
370
     9
100
AcDbSpline
210
0.0
220
0.0
230
1.0
 70
     8
 71
     3
 72
    62
 73
    58
 74
     0
 42
0.0000000001
 43
0.0000000001
 40
0.0
 40
0.0
 40
0.0
 40
0.0
 40
1.0
 40
1.0
 40
1.0
 40
2.0
 40
2.0
 40
2.0
 40
3.0
 40
3.0
 40
3.0
 40
4.0
 40
4.0
 40
4.0
 40
5.0
 40
5.0
 40
5.0
 40
6.0
 40
6.0
 40
6.0
 40
7.0
 40
7.0
 40
7.0
 40
8.0
 40
8.0
 40
8.0
 40
9.0
 40
9.0
 40
9.0
 40
10.0
 40
10.0
 40
10.0
 40
11.0
 40
11.0
 40
11.0
 40
12.0
 40
12.0
 40
12.0
 40
13.0
 40
13.0
 40
13.0
 40
14.0
 40
14.0
 40
14.0
 40
15.0
 40
15.0
 40
15.0
 40
16.0
 40
16.0
 40
16.0
 40
17.0
 40
17.0
 40
17.0
 40
18.0
 40
18.0
 40
18.0
 40
19.0
 40
19.0
 40
19.0
 40
19.0
 10
323.8240308182637
 20
-98.89842133780618
 30
0.0
 10
323.8447014048115
 20
-98.97938113511829
 30
0.0
 10
323.8722621868752
 20
-99.05827387377562
 30
0.0
 10
323.9074021840063
 20
-99.13441053422656
 30
0.0
 10
323.9914625693006
 20
-99.31665620562273
 30
0.0
 10
324.1072178539681
 20
-99.47547521226477
 30
0.0
 10
324.2543235282331
 20
-99.61086755415266
 30
0.0
 10
324.401429202498
 20
-99.74660440581636
 30
0.0
 10
324.5733395806204
 20
-99.85409145586476
 30
0.0
 10
324.7693656430484
 20
-99.93332870429788
 30
0.0
 10
324.9657362152522
 20
-100.0129104625068
 30
0.0
 10
325.1758871784879
 20
-100.0525290867234
 30
0.0
 10
325.400507552307
 20
-100.0525290867234
 30
0.0
 10
325.6244389065745
 20
-100.0525290867234
 30
0.0
 10
325.8359679089133
 20
-100.0129104625068
 30
0.0
 10
326.0344055397719
 20
-99.93332870429788
 30
0.0
 10
326.2335321901821
 20
-99.85409145586476
 30
0.0
 10
326.4057870780802
 20
-99.74660440581636
 30
0.0
 10
326.5532372621209
 20
-99.61086755415266
 30
0.0
 10
326.7003429363859
 20
-99.47547521226477
 30
0.0
 10
326.8171317503808
 20
-99.31665620562273
 30
0.0
 10
326.9036037041056
 20
-99.13441053422656
 30
0.0
 10
326.9900756578305
 20
-98.95216486283039
 30
0.0
 10
327.0334838895808
 20
-98.75579429062658
 30
0.0
 10
327.0334838895808
 20
-98.54564332739092
 30
0.0
 10
327.0334838895808
 20
-98.26521236989284
 30
0.0
 10
326.9573472291298
 20
-98.01061964557947
 30
0.0
 10
326.8054184180037
 20
-97.78186515445081
 30
0.0
 10
326.6538341166534
 20
-97.55276615354636
 30
0.0
 10
326.4560855053464
 20
-97.37052048215018
 30
0.0
 10
326.2132061134101
 20
-97.23512814026229
 30
0.0
 10
326.4560855053464
 20
-97.37052048215018
 30
0.0
 10
326.6538341166534
 20
-97.55276615354636
 30
0.0
 10
326.8054184180037
 20
-97.78186515445081
 30
0.0
 10
326.9573472291298
 20
-98.01061964557947
 30
0.0
 10
327.0334838895808
 20
-98.26521236989284
 30
0.0
 10
327.0334838895808
 20
-98.54564332739092
 30
0.0
 10
327.0334838895808
 20
-98.75579429062658
 30
0.0
 10
326.9900756578305
 20
-98.95216486283039
 30
0.0
 10
326.9036037041056
 20
-99.13441053422656
 30
0.0
 10
326.8171317503808
 20
-99.31665620562273
 30
0.0
 10
326.7003429363859
 20
-99.47547521226477
 30
0.0
 10
326.5532372621209
 20
-99.61086755415266
 30
0.0
 10
326.4057870780802
 20
-99.74660440581636
 30
0.0
 10
326.2335321901821
 20
-99.85409145586476
 30
0.0
 10
326.0344055397719
 20
-99.93332870429788
 30
0.0
 10
325.8359679089133
 20
-100.0129104625068
 30
0.0
 10
325.6244389065745
 20
-100.0525290867234
 30
0.0
 10
325.400507552307
 20
-100.0525290867234
 30
0.0
 10
325.1758871784879
 20
-100.0525290867234
 30
0.0
 10
324.9657362152522
 20
-100.0129104625068
 30
0.0
 10
324.7693656430484
 20
-99.93332870429788
 30
0.0
 10
324.5733395806204
 20
-99.85409145586476
 30
0.0
 10
324.401429202498
 20
-99.74660440581636
 30
0.0
 10
324.2543235282331
 20
-99.61086755415266
 30
0.0
 10
324.1072178539681
 20
-99.47547521226477
 30
0.0
 10
323.9914625693006
 20
-99.31665620562273
 30
0.0
 10
323.9074021840063
 20
-99.13441053422656
 30
0.0
  0
POLYLINE
  5
420
330
41B
100
AcDbEntity
  8
Calque 1
 62
   179
420
  1842203
370
     9
100
AcDb2dPolyline
 66
     1
 10
0.0
 20
0.0
 30
0.0
  0
VERTEX
  5
421
330
420
100
AcDbEntity
  8
Calque 1
 62
   179
420
  1842203
370
     9
100
AcDbVertex
100
AcDb2dVertex
 10
325.3440079490764
 20
-100.0456388912074
 30
0.0
  0
VERTEX
  5
44B
330
420
100
AcDbEntity
  8
0
100
AcDbVertex
100
AcDb2dVertex
 10
325.3440079490764
 20
-100.0456388912074
 30
0.0
  0
SEQEND
  5
422
330
420
100
AcDbEntity
  8
Calque 1
370
     9
  0
SPLINE
  5
423
330
41B
100
AcDbEntity
  8
Calque 1
 62
   179
420
  1842203
370
     9
100
AcDbSpline
210
0.0
220
0.0
230
1.0
 70
    11
 71
     3
 72
    17
 73
    13
 74
     0
 42
0.0000000001
 43
0.0000000001
 40
0.0
 40
0.0
 40
0.0
 40
0.0
 40
1.0
 40
1.0
 40
1.0
 40
2.0
 40
2.0
 40
2.0
 40
3.0
 40
3.0
 40
3.0
 40
4.0
 40
4.0
 40
4.0
 40
4.0
 10
324.7183781962306
 20
-97.71881986548011
 30
0.0
 10
325.2316977621668
 20
-97.71881986548011
 30
0.0
 10
325.647176551777
 20
-98.13429865509029
 30
0.0
 10
325.647176551777
 20
-98.64761822102658
 30
0.0
 10
325.647176551777
 20
-99.16128229673866
 30
0.0
 10
325.2316977621668
 20
-99.57676108634885
 30
0.0
 10
324.7183781962306
 20
-99.57676108634885
 30
0.0
 10
324.2050586302943
 20
-99.57676108634885
 30
0.0
 10
323.7888908211325
 20
-99.16128229673866
 30
0.0
 10
323.7888908211325
 20
-98.64761822102658
 30
0.0
 10
323.7888908211325
 20
-98.13429865509029
 30
0.0
 10
324.2050586302943
 20
-97.71881986548011
 30
0.0
 10
324.7183781962306
 20
-97.71881986548011
 30
0.0
  0
ENDBLK
  5
41E
330
41B
100
AcDbEntity
  8
0
100
AcDbBlockEnd
  0
BLOCK
  5
426
330
424
100
AcDbEntity
  8
0
100
AcDbBlockBegin
  2
block 35
 70
     0
 71
     0
 10
0.0
 20
0.0
 30
0.0
  3
block 35
  1

  0
SPLINE
  5
428
330
424
100
AcDbEntity
  8
Calque 1
 62
   179
420
  1842203
370
     9
100
AcDbSpline
210
0.0
220
0.0
230
1.0
 70
     8
 71
     3
 72
    62
 73
    58
 74
     0
 42
0.0000000001
 43
0.0000000001
 40
0.0
 40
0.0
 40
0.0
 40
0.0
 40
1.0
 40
1.0
 40
1.0
 40
2.0
 40
2.0
 40
2.0
 40
3.0
 40
3.0
 40
3.0
 40
4.0
 40
4.0
 40
4.0
 40
5.0
 40
5.0
 40
5.0
 40
6.0
 40
6.0
 40
6.0
 40
7.0
 40
7.0
 40
7.0
 40
8.0
 40
8.0
 40
8.0
 40
9.0
 40
9.0
 40
9.0
 40
10.0
 40
10.0
 40
10.0
 40
11.0
 40
11.0
 40
11.0
 40
12.0
 40
12.0
 40
12.0
 40
13.0
 40
13.0
 40
13.0
 40
14.0
 40
14.0
 40
14.0
 40
15.0
 40
15.0
 40
15.0
 40
16.0
 40
16.0
 40
16.0
 40
17.0
 40
17.0
 40
17.0
 40
18.0
 40
18.0
 40
18.0
 40
19.0
 40
19.0
 40
19.0
 40
19.0
 10
326.8267780241031
 20
-91.60411585487391
 30
0.0
 10
326.6793278400623
 20
-91.92278739748537
 30
0.0
 10
326.4774451114458
 20
-92.20046227677707
 30
0.0
 10
326.220096308926
 20
-92.43731274763694
 30
0.0
 10
325.9627475064063
 20
-92.6743354733847
 30
0.0
 10
325.6630240014636
 20
-92.86192104630572
 30
0.0
 10
325.3198922647707
 20
-93.00075848595158
 30
0.0
 10
324.9767605280776
 20
-93.13976818048533
 30
0.0
 10
324.609513107079
 20
-93.20901464542035
 30
0.0
 10
324.2174609822229
 20
-93.20901464542035
 30
0.0
 10
323.8254088573669
 20
-93.20901464542035
 30
0.0
 10
323.4557498679376
 20
-93.13976818048533
 30
0.0
 10
323.1088285237108
 20
-93.00075848595158
 30
0.0
 10
322.7615626697083
 20
-92.86192104630572
 30
0.0
 10
322.459427596335
 20
-92.6743354733847
 30
0.0
 10
322.2020787938153
 20
-92.43731274763694
 30
0.0
 10
321.9447299912956
 20
-92.20046227677707
 30
0.0
 10
321.7404356942484
 20
-91.92278739748537
 30
0.0
 10
321.5895404124497
 20
-91.60411585487391
 30
0.0
 10
321.4383006208752
 20
-91.28561656715036
 30
0.0
 10
321.3628529799759
 20
-90.94282934023316
 30
0.0
 10
321.3628529799759
 20
-90.57523740945865
 30
0.0
 10
321.3628529799759
 20
-90.0851722533886
 30
0.0
 10
321.4954892436574
 20
-89.64006562305995
 30
0.0
 10
321.7611062807962
 20
-89.2399175184727
 30
0.0
 10
322.0263788081593
 20
-88.83994166877335
 30
0.0
 10
322.371577603507
 20
-88.5214423810498
 30
0.0
 10
322.7960136472879
 20
-88.28441965530203
 30
0.0
 10
322.371577603507
 20
-88.5214423810498
 30
0.0
 10
322.0263788081593
 20
-88.83994166877335
 30
0.0
 10
321.7611062807962
 20
-89.2399175184727
 30
0.0
 10
321.4954892436574
 20
-89.64006562305995
 30
0.0
 10
321.3628529799759
 20
-90.0851722533886
 30
0.0
 10
321.3628529799759
 20
-90.57523740945865
 30
0.0
 10
321.3628529799759
 20
-90.94282934023316
 30
0.0
 10
321.4383006208752
 20
-91.28561656715036
 30
0.0
 10
321.5895404124497
 20
-91.60411585487391
 30
0.0
 10
321.7404356942484
 20
-91.92278739748537
 30
0.0
 10
321.9447299912956
 20
-92.20046227677707
 30
0.0
 10
322.2020787938153
 20
-92.43731274763694
 30
0.0
 10
322.459427596335
 20
-92.6743354733847
 30
0.0
 10
322.7615626697083
 20
-92.86192104630572
 30
0.0
 10
323.1088285237108
 20
-93.00075848595158
 30
0.0
 10
323.4557498679376
 20
-93.13976818048533
 30
0.0
 10
323.8254088573669
 20
-93.20901464542035
 30
0.0
 10
324.2174609822229
 20
-93.20901464542035
 30
0.0
 10
324.609513107079
 20
-93.20901464542035
 30
0.0
 10
324.9767605280776
 20
-93.13976818048533
 30
0.0
 10
325.3198922647707
 20
-93.00075848595158
 30
0.0
 10
325.6630240014636
 20
-92.86192104630572
 30
0.0
 10
325.9627475064063
 20
-92.6743354733847
 30
0.0
 10
326.220096308926
 20
-92.43731274763694
 30
0.0
 10
326.4774451114458
 20
-92.20046227677707
 30
0.0
 10
326.6793278400623
 20
-91.92278739748537
 30
0.0
 10
326.8267780241031
 20
-91.60411585487391
 30
0.0
 10
326.8881007641948
 20
-91.47096282652869
 30
0.0
 10
326.9363321328063
 20
-91.33315891621022
 30
0.0
 10
326.9725056592649
 20
-91.191565398358
 30
0.0
  0
POLYLINE
  5
429
330
424
100
AcDbEntity
  8
Calque 1
 62
   179
420
  1842203
370
     9
100
AcDb2dPolyline
 66
     1
 10
0.0
 20
0.0
 30
0.0
  0
VERTEX
  5
42A
330
429
100
AcDbEntity
  8
Calque 1
 62
   179
420
  1842203
370
     9
100
AcDbVertex
100
AcDb2dVertex
 10
324.315301758549
 20
-93.1967845483796
 30
0.0
  0
VERTEX
  5
44C
330
429
100
AcDbEntity
  8
0
100
AcDbVertex
100
AcDb2dVertex
 10
324.315301758549
 20
-93.1967845483796
 30
0.0
  0
SEQEND
  5
42B
330
429
100
AcDbEntity
  8
Calque 1
370
     9
  0
SPLINE
  5
42C
330
424
100
AcDbEntity
  8
Calque 1
 62
   179
420
  1842203
370
     9
100
AcDbSpline
210
0.0
220
0.0
230
1.0
 70
    11
 71
     3
 72
    17
 73
    13
 74
     0
 42
0.0000000001
 43
0.0000000001
 40
0.0
 40
0.0
 40
0.0
 40
0.0
 40
1.0
 40
1.0
 40
1.0
 40
2.0
 40
2.0
 40
2.0
 40
3.0
 40
3.0
 40
3.0
 40
4.0
 40
4.0
 40
4.0
 40
4.0
 10
325.4094648064777
 20
-89.12984664510583
 30
0.0
 10
324.5120168405286
 20
-89.12984664510583
 30
0.0
 10
323.7851012135987
 20
-89.85659001714784
 30
0.0
 10
323.7854457233745
 20
-90.75369347332106
 30
0.0
 10
323.7854457233745
 20
-91.65096918438219
 30
0.0
 10
324.5120168405286
 20
-92.3778848113121
 30
0.0
 10
325.4094648064777
 20
-92.3778848113121
 30
0.0
 10
326.3065682626509
 20
-92.3778848113121
 30
0.0
 10
327.033139379805
 20
-91.65096918438219
 30
0.0
 10
327.033139379805
 20
-90.75369347332106
 30
0.0
 10
327.033139379805
 20
-89.85659001714784
 30
0.0
 10
326.3065682626509
 20
-89.12984664510583
 30
0.0
 10
325.4094648064777
 20
-89.12984664510583
 30
0.0
  0
ENDBLK
  5
427
330
424
100
AcDbEntity
  8
0
100
AcDbBlockEnd
  0
BLOCK
  5
42F
330
42D
100
AcDbEntity
  8
0
100
AcDbBlockBegin
  2
block 36
 70
     0
 71
     0
 10
0.0
 20
0.0
 30
0.0
  3
block 36
  1

  0
INSERT
  5
432
330
42D
100
AcDbEntity
  8
Calque 1
100
AcDbBlockReference
  2
block 37
 10
0.0
 20
0.0
 30
0.0
  0
SPLINE
  5
43A
330
42D
100
AcDbEntity
  8
Calque 1
 62
   179
420
  1842203
370
     9
100
AcDbSpline
210
0.0
220
0.0
230
1.0
 70
     8
 71
     3
 72
     8
 73
     4
 74
     0
 42
0.0000000001
 43
0.0000000001
 40
0.0
 40
0.0
 40
0.0
 40
0.0
 40
1.0
 40
1.0
 40
1.0
 40
1.0
 10
322.1021709588344
 20
-124.7466453060169
 30
0.0
 10
322.6120454270128
 20
-124.7466453060169
 30
0.0
 10
323.0247681384166
 20
-125.1597125271965
 30
0.0
 10
323.0247681384166
 20
-125.6695869953749
 30
0.0
  0
ENDBLK
  5
430
330
42D
100
AcDbEntity
  8
0
100
AcDbBlockEnd
  0
BLOCK
  5
433
330
431
100
AcDbEntity
  8
0
100
AcDbBlockBegin
  2
block 37
 70
     0
 71
     0
 10
0.0
 20
0.0
 30
0.0
  3
block 37
  1

  0
SPLINE
  5
435
330
431
100
AcDbEntity
  8
Calque 1
 62
   179
420
  1842203
370
     9
100
AcDbSpline
210
0.0
220
0.0
230
1.0
 70
     8
 71
     3
 72
    62
 73
    58
 74
     0
 42
0.0000000001
 43
0.0000000001
 40
0.0
 40
0.0
 40
0.0
 40
0.0
 40
1.0
 40
1.0
 40
1.0
 40
2.0
 40
2.0
 40
2.0
 40
3.0
 40
3.0
 40
3.0
 40
4.0
 40
4.0
 40
4.0
 40
5.0
 40
5.0
 40
5.0
 40
6.0
 40
6.0
 40
6.0
 40
7.0
 40
7.0
 40
7.0
 40
8.0
 40
8.0
 40
8.0
 40
9.0
 40
9.0
 40
9.0
 40
10.0
 40
10.0
 40
10.0
 40
11.0
 40
11.0
 40
11.0
 40
12.0
 40
12.0
 40
12.0
 40
13.0
 40
13.0
 40
13.0
 40
14.0
 40
14.0
 40
14.0
 40
15.0
 40
15.0
 40
15.0
 40
16.0
 40
16.0
 40
16.0
 40
17.0
 40
17.0
 40
17.0
 40
18.0
 40
18.0
 40
18.0
 40
19.0
 40
19.0
 40
19.0
 40
19.0
 10
323.8260978769185
 20
-125.4625366201214
 30
0.0
 10
323.8467684634662
 20
-125.5438409272093
 30
0.0
 10
323.8743292455299
 20
-125.6223891560908
 30
0.0
 10
323.9094692426611
 20
-125.6988703263176
 30
0.0
 10
323.9938741377312
 20
-125.8811159977137
 30
0.0
 10
324.1092849126229
 20
-126.0399350043558
 30
0.0
 10
324.2567350966636
 20
-126.1753273462437
 30
0.0
 10
324.4038407709286
 20
-126.3110641979073
 30
0.0
 10
324.5754066392751
 20
-126.41820673818
 30
0.0
 10
324.7721217212547
 20
-126.4977884963889
 30
0.0
 10
324.967803273907
 20
-126.5773702545978
 30
0.0
 10
325.1782987469184
 20
-126.6169888788143
 30
0.0
 10
325.4025746109617
 20
-126.6169888788143
 30
0.0
 10
325.626850475005
 20
-126.6169888788143
 30
0.0
 10
325.8383794773439
 20
-126.5773702545978
 30
0.0
 10
326.0368171082025
 20
-126.4977884963889
 30
0.0
 10
326.2355992488369
 20
-126.41820673818
 30
0.0
 10
326.4081986465108
 20
-126.3110641979073
 30
0.0
 10
326.5553043207757
 20
-126.1753273462437
 30
0.0
 10
326.7027545048165
 20
-126.0399350043558
 30
0.0
 10
326.8195433188114
 20
-125.8811159977137
 30
0.0
 10
326.9060152725362
 20
-125.6988703263176
 30
0.0
 10
326.9924872262611
 20
-125.5166246549214
 30
0.0
 10
327.0355509482356
 20
-125.3202540827176
 30
0.0
 10
327.0355509482356
 20
-125.1101031194819
 30
0.0
 10
327.0355509482356
 20
-124.8296721619838
 30
0.0
 10
326.9597587975604
 20
-124.5750794376705
 30
0.0
 10
326.8078299864343
 20
-124.345980436766
 30
0.0
 10
326.6559011753082
 20
-124.1172259456373
 30
0.0
 10
326.4588415835528
 20
-123.9349802742412
 30
0.0
 10
326.2156176818407
 20
-123.7995879323533
 30
0.0
 10
326.4588415835528
 20
-123.9349802742412
 30
0.0
 10
326.6559011753082
 20
-124.1172259456373
 30
0.0
 10
326.8078299864343
 20
-124.345980436766
 30
0.0
 10
326.9597587975604
 20
-124.5750794376705
 30
0.0
 10
327.0355509482356
 20
-124.8296721619838
 30
0.0
 10
327.0355509482356
 20
-125.1101031194819
 30
0.0
 10
327.0355509482356
 20
-125.3202540827176
 30
0.0
 10
326.9924872262611
 20
-125.5166246549214
 30
0.0
 10
326.9060152725362
 20
-125.6988703263176
 30
0.0
 10
326.8195433188114
 20
-125.8811159977137
 30
0.0
 10
326.7027545048165
 20
-126.0399350043558
 30
0.0
 10
326.5553043207757
 20
-126.1753273462437
 30
0.0
 10
326.4081986465108
 20
-126.3110641979073
 30
0.0
 10
326.2355992488369
 20
-126.41820673818
 30
0.0
 10
326.0368171082025
 20
-126.4977884963889
 30
0.0
 10
325.8383794773439
 20
-126.5773702545978
 30
0.0
 10
325.626850475005
 20
-126.6169888788143
 30
0.0
 10
325.4025746109617
 20
-126.6169888788143
 30
0.0
 10
325.1782987469184
 20
-126.6169888788143
 30
0.0
 10
324.967803273907
 20
-126.5773702545978
 30
0.0
 10
324.7721217212547
 20
-126.4977884963889
 30
0.0
 10
324.5754066392751
 20
-126.41820673818
 30
0.0
 10
324.4038407709286
 20
-126.3110641979073
 30
0.0
 10
324.2567350966636
 20
-126.1753273462437
 30
0.0
 10
324.1092849126229
 20
-126.0399350043558
 30
0.0
 10
323.9938741377312
 20
-125.8811159977137
 30
0.0
 10
323.9094692426611
 20
-125.6988703263176
 30
0.0
  0
POLYLINE
  5
436
330
431
100
AcDbEntity
  8
Calque 1
 62
   179
420
  1842203
370
     9
100
AcDb2dPolyline
 66
     1
 10
0.0
 20
0.0
 30
0.0
  0
VERTEX
  5
437
330
436
100
AcDbEntity
  8
Calque 1
 62
   179
420
  1842203
370
     9
100
AcDbVertex
100
AcDb2dVertex
 10
325.3467640272827
 20
-126.6097541735226
 30
0.0
  0
VERTEX
  5
44D
330
436
100
AcDbEntity
  8
0
100
AcDbVertex
100
AcDb2dVertex
 10
325.3467640272827
 20
-126.6097541735226
 30
0.0
  0
SEQEND
  5
438
330
436
100
AcDbEntity
  8
Calque 1
370
     9
  0
SPLINE
  5
439
330
431
100
AcDbEntity
  8
Calque 1
 62
   179
420
  1842203
370
     9
100
AcDbSpline
210
0.0
220
0.0
230
1.0
 70
    11
 71
     3
 72
    17
 73
    13
 74
     0
 42
0.0000000001
 43
0.0000000001
 40
0.0
 40
0.0
 40
0.0
 40
0.0
 40
1.0
 40
1.0
 40
1.0
 40
2.0
 40
2.0
 40
2.0
 40
3.0
 40
3.0
 40
3.0
 40
4.0
 40
4.0
 40
4.0
 40
4.0
 10
324.7204452548853
 20
-124.2832796575711
 30
0.0
 10
325.2337648208216
 20
-124.2832796575711
 30
0.0
 10
325.6499326299834
 20
-124.6987584471813
 30
0.0
 10
325.6499326299834
 20
-125.2120780131176
 30
0.0
 10
325.6499326299834
 20
-125.7253975790539
 30
0.0
 10
325.2337648208216
 20
-126.1412208784398
 30
0.0
 10
324.7204452548853
 20
-126.1412208784398
 30
0.0
 10
324.207125688949
 20
-126.1412208784398
 30
0.0
 10
323.7916468993388
 20
-125.7253975790539
 30
0.0
 10
323.7916468993388
 20
-125.2120780131176
 30
0.0
 10
323.7916468993388
 20
-124.6987584471813
 30
0.0
 10
324.207125688949
 20
-124.2832796575711
 30
0.0
 10
324.7204452548853
 20
-124.2832796575711
 30
0.0
  0
ENDBLK
  5
434
330
431
100
AcDbEntity
  8
0
100
AcDbBlockEnd
  0
ENDSEC
  0
SECTION
  2
ENTITIES
  0
POLYLINE
  5
3C
330
1F
100
AcDbEntity
  8
Calque 1
 62
   179
420
  1842203
370
    35
100
AcDb2dPolyline
 66
     1
 10
0.0
 20
0.0
 30
0.0
  0
VERTEX
  5
3D
330
3C
100
AcDbEntity
  8
Calque 1
 62
   179
420
  1842203
370
    35
100
AcDbVertex
100
AcDb2dVertex
 10
264.1377121615774
 20
-91.38604116679494
 30
0.0
  0
VERTEX
  5
3E
330
3C
100
AcDbEntity
  8
Calque 1
 62
   179
420
  1842203
370
    35
100
AcDbVertex
100
AcDb2dVertex
 10
264.1377121615774
 20
-81.38630041453534
 30
0.0
  0
VERTEX
  5
3F
330
3C
100
AcDbEntity
  8
Calque 1
 62
   179
420
  1842203
370
    35
100
AcDbVertex
100
AcDb2dVertex
 10
267.1377032892105
 20
-81.38630041453534
 30
0.0
  0
VERTEX
  5
40
330
3C
100
AcDbEntity
  8
Calque 1
 62
   179
420
  1842203
370
    35
100
AcDbVertex
100
AcDb2dVertex
 10
267.1377032892105
 20
-91.38604116679494
 30
0.0
  0
VERTEX
  5
41
330
3C
100
AcDbEntity
  8
Calque 1
 62
   179
420
  1842203
370
    35
100
AcDbVertex
100
AcDb2dVertex
 10
264.1377121615774
 20
-91.38604116679494
 30
0.0
  0
SEQEND
  5
42
330
3C
100
AcDbEntity
  8
Calque 1
370
    35
  0
POLYLINE
  5
43
330
1F
100
AcDbEntity
  8
Calque 1
 62
   179
420
  1842203
370
    35
100
AcDb2dPolyline
 66
     1
 10
0.0
 20
0.0
 30
0.0
  0
VERTEX
  5
44
330
43
100
AcDbEntity
  8
Calque 1
 62
   179
420
  1842203
370
    35
100
AcDbVertex
100
AcDb2dVertex
 10
259.1354302170171
 20
-76.38815258728452
 30
0.0
  0
VERTEX
  5
45
330
43
100
AcDbEntity
  8
Calque 1
 62
   179
420
  1842203
370
    35
100
AcDbVertex
100
AcDb2dVertex
 10
249.1356894647575
 20
-76.38815258728452
 30
0.0
  0
VERTEX
  5
46
330
43
100
AcDbEntity
  8
Calque 1
 62
   179
420
  1842203
370
    35
100
AcDbVertex
100
AcDb2dVertex
 10
249.1356894647575
 20
-73.38747244009988
 30
0.0
  0
VERTEX
  5
47
330
43
100
AcDbEntity
  8
Calque 1
 62
   179
420
  1842203
370
    35
100
AcDbVertex
100
AcDb2dVertex
 10
259.1354302170171
 20
-73.38747244009988
 30
0.0
  0
VERTEX
  5
48
330
43
100
AcDbEntity
  8
Calque 1
 62
   179
420
  1842203
370
    35
100
AcDbVertex
100
AcDb2dVertex
 10
259.1354302170171
 20
-76.38815258728452
 30
0.0
  0
SEQEND
  5
49
330
43
100
AcDbEntity
  8
Calque 1
370
    35
  0
POLYLINE
  5
4A
330
1F
100
AcDbEntity
  8
Calque 1
 62
   179
420
  1842203
370
    35
100
AcDb2dPolyline
 66
     1
 10
0.0
 20
0.0
 30
0.0
  0
VERTEX
  5
4B
330
4A
100
AcDbEntity
  8
Calque 1
 62
   179
420
  1842203
370
    35
100
AcDbVertex
100
AcDb2dVertex
 10
244.1375416375066
 20
-81.3897455122933
 30
0.0
  0
VERTEX
  5
4C
330
4A
100
AcDbEntity
  8
Calque 1
 62
   179
420
  1842203
370
    35
100
AcDbVertex
100
AcDb2dVertex
 10
244.1375416375066
 20
-91.3894862645529
 30
0.0
  0
VERTEX
  5
4D
330
4A
100
AcDbEntity
  8
Calque 1
 62
   179
420
  1842203
370
    35
100
AcDbVertex
100
AcDb2dVertex
 10
241.136861490322
 20
-91.3894862645529
 30
0.0
  0
VERTEX
  5
4E
330
4A
100
AcDbEntity
  8
Calque 1
 62
   179
420
  1842203
370
    35
100
AcDbVertex
100
AcDb2dVertex
 10
241.136861490322
 20
-81.3897455122933
 30
0.0
  0
VERTEX
  5
4F
330
4A
100
AcDbEntity
  8
Calque 1
 62
   179
420
  1842203
370
    35
100
AcDbVertex
100
AcDb2dVertex
 10
244.1375416375066
 20
-81.3897455122933
 30
0.0
  0
SEQEND
  5
50
330
4A
100
AcDbEntity
  8
Calque 1
370
    35
  0
POLYLINE
  5
51
330
1F
100
AcDbEntity
  8
Calque 1
 62
   179
420
  1842203
370
    35
100
AcDb2dPolyline
 66
     1
 10
0.0
 20
0.0
 30
0.0
  0
VERTEX
  5
52
330
51
100
AcDbEntity
  8
Calque 1
 62
   179
420
  1842203
370
    35
100
AcDbVertex
100
AcDb2dVertex
 10
249.1391345625154
 20
-96.3883231113553
 30
0.0
  0
VERTEX
  5
53
330
51
100
AcDbEntity
  8
Calque 1
 62
   179
420
  1842203
370
    35
100
AcDbVertex
100
AcDb2dVertex
 10
259.138875314775
 20
-96.3883231113553
 30
0.0
  0
VERTEX
  5
54
330
51
100
AcDbEntity
  8
Calque 1
 62
   179
420
  1842203
370
    35
100
AcDbVertex
100
AcDb2dVertex
 10
259.138875314775
 20
-99.38831423898834
 30
0.0
  0
VERTEX
  5
55
330
51
100
AcDbEntity
  8
Calque 1
 62
   179
420
  1842203
370
    35
100
AcDbVertex
100
AcDb2dVertex
 10
249.1391345625154
 20
-99.38831423898834
 30
0.0
  0
VERTEX
  5
56
330
51
100
AcDbEntity
  8
Calque 1
 62
   179
420
  1842203
370
    35
100
AcDbVertex
100
AcDb2dVertex
 10
249.1391345625154
 20
-96.3883231113553
 30
0.0
  0
SEQEND
  5
57
330
51
100
AcDbEntity
  8
Calque 1
370
    35
  0
POLYLINE
  5
58
330
1F
100
AcDbEntity
  8
Calque 1
 62
   179
420
  1842203
370
    35
100
AcDb2dPolyline
 66
     1
 10
0.0
 20
0.0
 30
0.0
  0
VERTEX
  5
59
330
58
100
AcDbEntity
  8
Calque 1
 62
   179
420
  1842203
370
    35
100
AcDbVertex
100
AcDb2dVertex
 10
239.6692498454303
 20
-71.91917177565662
 30
0.0
  0
VERTEX
  5
5A
330
58
100
AcDbEntity
  8
Calque 1
 62
   179
420
  1842203
370
    35
100
AcDbVertex
100
AcDb2dVertex
 10
268.6060039536537
 20
-71.91917177565662
 30
0.0
  0
VERTEX
  5
5B
330
58
100
AcDbEntity
  8
Calque 1
 62
   179
420
  1842203
370
    35
100
AcDbVertex
100
AcDb2dVertex
 10
268.6060039536537
 20
-100.8566149034316
 30
0.0
  0
VERTEX
  5
5C
330
58
100
AcDbEntity
  8
Calque 1
 62
   179
420
  1842203
370
    35
100
AcDbVertex
100
AcDb2dVertex
 10
239.6692498454303
 20
-100.8566149034316
 30
0.0
  0
VERTEX
  5
5D
330
58
100
AcDbEntity
  8
Calque 1
 62
   179
420
  1842203
370
    35
100
AcDbVertex
100
AcDb2dVertex
 10
239.6692498454303
 20
-71.91917177565662
 30
0.0
  0
SEQEND
  5
5E
330
58
100
AcDbEntity
  8
Calque 1
370
    35
  0
POLYLINE
  5
5F
330
1F
100
AcDbEntity
  8
Calque 1
 62
   179
420
  1842203
370
    35
100
AcDb2dPolyline
 66
     1
 10
0.0
 20
0.0
 30
0.0
  0
VERTEX
  5
60
330
5F
100
AcDbEntity
  8
Calque 1
 62
   179
420
  1842203
370
    35
100
AcDbVertex
100
AcDb2dVertex
 10
244.1354745788519
 20
-114.8106388622796
 30
0.0
  0
VERTEX
  5
61
330
5F
100
AcDbEntity
  8
Calque 1
 62
   179
420
  1842203
370
    35
100
AcDbVertex
100
AcDb2dVertex
 10
244.1354745788519
 20
-124.8103796145392
 30
0.0
  0
VERTEX
  5
62
330
5F
100
AcDbEntity
  8
Calque 1
 62
   179
420
  1842203
370
    35
100
AcDbVertex
100
AcDb2dVertex
 10
241.1354834512188
 20
-124.8103796145392
 30
0.0
  0
VERTEX
  5
63
330
5F
100
AcDbEntity
  8
Calque 1
 62
   179
420
  1842203
370
    35
100
AcDbVertex
100
AcDb2dVertex
 10
241.1354834512188
 20
-114.8106388622796
 30
0.0
  0
VERTEX
  5
64
330
5F
100
AcDbEntity
  8
Calque 1
 62
   179
420
  1842203
370
    35
100
AcDbVertex
100
AcDb2dVertex
 10
244.1354745788519
 20
-114.8106388622796
 30
0.0
  0
SEQEND
  5
65
330
5F
100
AcDbEntity
  8
Calque 1
370
    35
  0
POLYLINE
  5
66
330
1F
100
AcDbEntity
  8
Calque 1
 62
   179
420
  1842203
370
    35
100
AcDb2dPolyline
 66
     1
 10
0.0
 20
0.0
 30
0.0
  0
VERTEX
  5
67
330
66
100
AcDbEntity
  8
Calque 1
 62
   179
420
  1842203
370
    35
100
AcDbVertex
100
AcDb2dVertex
 10
249.1377565234122
 20
-129.8085274417901
 30
0.0
  0
VERTEX
  5
68
330
66
100
AcDbEntity
  8
Calque 1
 62
   179
420
  1842203
370
    35
100
AcDbVertex
100
AcDb2dVertex
 10
259.1374972756718
 20
-129.8085274417901
 30
0.0
  0
VERTEX
  5
69
330
66
100
AcDbEntity
  8
Calque 1
 62
   179
420
  1842203
370
    35
100
AcDbVertex
100
AcDb2dVertex
 10
259.1374972756718
 20
-132.8092075889747
 30
0.0
  0
VERTEX
  5
6A
330
66
100
AcDbEntity
  8
Calque 1
 62
   179
420
  1842203
370
    35
100
AcDbVertex
100
AcDb2dVertex
 10
249.1377565234122
 20
-132.8092075889747
 30
0.0
  0
VERTEX
  5
6B
330
66
100
AcDbEntity
  8
Calque 1
 62
   179
420
  1842203
370
    35
100
AcDbVertex
100
AcDb2dVertex
 10
249.1377565234122
 20
-129.8085274417901
 30
0.0
  0
SEQEND
  5
6C
330
66
100
AcDbEntity
  8
Calque 1
370
    35
  0
POLYLINE
  5
6D
330
1F
100
AcDbEntity
  8
Calque 1
 62
   179
420
  1842203
370
    35
100
AcDb2dPolyline
 66
     1
 10
0.0
 20
0.0
 30
0.0
  0
VERTEX
  5
6E
330
6D
100
AcDbEntity
  8
Calque 1
 62
   179
420
  1842203
370
    35
100
AcDbVertex
100
AcDb2dVertex
 10
264.1356451029226
 20
-124.8069345167813
 30
0.0
  0
VERTEX
  5
6F
330
6D
100
AcDbEntity
  8
Calque 1
 62
   179
420
  1842203
370
    35
100
AcDbVertex
100
AcDb2dVertex
 10
264.1356451029226
 20
-114.8071937645217
 30
0.0
  0
VERTEX
  5
70
330
6D
100
AcDbEntity
  8
Calque 1
 62
   179
420
  1842203
370
    35
100
AcDbVertex
100
AcDb2dVertex
 10
267.1363252501073
 20
-114.8071937645217
 30
0.0
  0
VERTEX
  5
71
330
6D
100
AcDbEntity
  8
Calque 1
 62
   179
420
  1842203
370
    35
100
AcDbVertex
100
AcDb2dVertex
 10
267.1363252501073
 20
-124.8069345167813
 30
0.0
  0
VERTEX
  5
72
330
6D
100
AcDbEntity
  8
Calque 1
 62
   179
420
  1842203
370
    35
100
AcDbVertex
100
AcDb2dVertex
 10
264.1356451029226
 20
-124.8069345167813
 30
0.0
  0
SEQEND
  5
73
330
6D
100
AcDbEntity
  8
Calque 1
370
    35
  0
POLYLINE
  5
74
330
1F
100
AcDbEntity
  8
Calque 1
 62
   179
420
  1842203
370
    35
100
AcDb2dPolyline
 66
     1
 10
0.0
 20
0.0
 30
0.0
  0
VERTEX
  5
75
330
74
100
AcDbEntity
  8
Calque 1
 62
   179
420
  1842203
370
    35
100
AcDbVertex
100
AcDb2dVertex
 10
259.1340521779139
 20
-109.8085291726072
 30
0.0
  0
VERTEX
  5
76
330
74
100
AcDbEntity
  8
Calque 1
 62
   179
420
  1842203
370
    35
100
AcDbVertex
100
AcDb2dVertex
 10
249.1343114256543
 20
-109.8085291726072
 30
0.0
  0
VERTEX
  5
77
330
74
100
AcDbEntity
  8
Calque 1
 62
   179
420
  1842203
370
    35
100
AcDbVertex
100
AcDb2dVertex
 10
249.1343114256543
 20
-106.8085380449741
 30
0.0
  0
VERTEX
  5
78
330
74
100
AcDbEntity
  8
Calque 1
 62
   179
420
  1842203
370
    35
100
AcDbVertex
100
AcDb2dVertex
 10
259.1340521779139
 20
-106.8085380449741
 30
0.0
  0
VERTEX
  5
79
330
74
100
AcDbEntity
  8
Calque 1
 62
   179
420
  1842203
370
    35
100
AcDbVertex
100
AcDb2dVertex
 10
259.1340521779139
 20
-109.8085291726072
 30
0.0
  0
SEQEND
  5
7A
330
74
100
AcDbEntity
  8
Calque 1
370
    35
  0
POLYLINE
  5
7B
330
1F
100
AcDbEntity
  8
Calque 1
 62
   179
420
  1842203
370
    35
100
AcDb2dPolyline
 66
     1
 10
0.0
 20
0.0
 30
0.0
  0
VERTEX
  5
7C
330
7B
100
AcDbEntity
  8
Calque 1
 62
   179
420
  1842203
370
    35
100
AcDbVertex
100
AcDb2dVertex
 10
268.603936894999
 20
-134.2775082534179
 30
0.0
  0
VERTEX
  5
7D
330
7B
100
AcDbEntity
  8
Calque 1
 62
   179
420
  1842203
370
    35
100
AcDbVertex
100
AcDb2dVertex
 10
239.6671827867756
 20
-134.2775082534179
 30
0.0
  0
VERTEX
  5
7E
330
7B
100
AcDbEntity
  8
Calque 1
 62
   179
420
  1842203
370
    35
100
AcDbVertex
100
AcDb2dVertex
 10
239.6671827867756
 20
-105.3402373805309
 30
0.0
  0
VERTEX
  5
7F
330
7B
100
AcDbEntity
  8
Calque 1
 62
   179
420
  1842203
370
    35
100
AcDbVertex
100
AcDb2dVertex
 10
268.603936894999
 20
-105.3402373805309
 30
0.0
  0
VERTEX
  5
80
330
7B
100
AcDbEntity
  8
Calque 1
 62
   179
420
  1842203
370
    35
100
AcDbVertex
100
AcDb2dVertex
 10
268.603936894999
 20
-134.2775082534179
 30
0.0
  0
SEQEND
  5
81
330
7B
100
AcDbEntity
  8
Calque 1
370
    35
  0
POLYLINE
  5
82
330
1F
100
AcDbEntity
  8
Calque 1
 62
   179
420
  1842203
370
    35
100
AcDb2dPolyline
 66
     1
 10
0.0
 20
0.0
 30
0.0
  0
VERTEX
  5
83
330
82
100
AcDbEntity
  8
Calque 1
 62
   179
420
  1842203
370
    35
100
AcDbVertex
100
AcDb2dVertex
 10
244.1375416375066
 20
-147.3495871862278
 30
0.0
  0
VERTEX
  5
84
330
82
100
AcDbEntity
  8
Calque 1
 62
   179
420
  1842203
370
    35
100
AcDbVertex
100
AcDb2dVertex
 10
244.1375416375066
 20
-157.3493279384874
 30
0.0
  0
VERTEX
  5
85
330
82
100
AcDbEntity
  8
Calque 1
 62
   179
420
  1842203
370
    35
100
AcDbVertex
100
AcDb2dVertex
 10
241.136861490322
 20
-157.3493279384874
 30
0.0
  0
VERTEX
  5
86
330
82
100
AcDbEntity
  8
Calque 1
 62
   179
420
  1842203
370
    35
100
AcDbVertex
100
AcDb2dVertex
 10
241.136861490322
 20
-147.3495871862278
 30
0.0
  0
VERTEX
  5
87
330
82
100
AcDbEntity
  8
Calque 1
 62
   179
420
  1842203
370
    35
100
AcDbVertex
100
AcDb2dVertex
 10
244.1375416375066
 20
-147.3495871862278
 30
0.0
  0
SEQEND
  5
88
330
82
100
AcDbEntity
  8
Calque 1
370
    35
  0
POLYLINE
  5
89
330
1F
100
AcDbEntity
  8
Calque 1
 62
   179
420
  1842203
370
    35
100
AcDb2dPolyline
 66
     1
 10
0.0
 20
0.0
 30
0.0
  0
VERTEX
  5
8A
330
89
100
AcDbEntity
  8
Calque 1
 62
   179
420
  1842203
370
    35
100
AcDbVertex
100
AcDb2dVertex
 10
249.1391345625154
 20
-162.3474757657382
 30
0.0
  0
VERTEX
  5
8B
330
89
100
AcDbEntity
  8
Calque 1
 62
   179
420
  1842203
370
    35
100
AcDbVertex
100
AcDb2dVertex
 10
259.138875314775
 20
-162.3474757657382
 30
0.0
  0
VERTEX
  5
8C
330
89
100
AcDbEntity
  8
Calque 1
 62
   179
420
  1842203
370
    35
100
AcDbVertex
100
AcDb2dVertex
 10
259.138875314775
 20
-165.3481559129228
 30
0.0
  0
VERTEX
  5
8D
330
89
100
AcDbEntity
  8
Calque 1
 62
   179
420
  1842203
370
    35
100
AcDbVertex
100
AcDb2dVertex
 10
249.1391345625154
 20
-165.3481559129228
 30
0.0
  0
VERTEX
  5
8E
330
89
100
AcDbEntity
  8
Calque 1
 62
   179
420
  1842203
370
    35
100
AcDbVertex
100
AcDb2dVertex
 10
249.1391345625154
 20
-162.3474757657382
 30
0.0
  0
SEQEND
  5
8F
330
89
100
AcDbEntity
  8
Calque 1
370
    35
  0
POLYLINE
  5
90
330
1F
100
AcDbEntity
  8
Calque 1
 62
   179
420
  1842203
370
    35
100
AcDb2dPolyline
 66
     1
 10
0.0
 20
0.0
 30
0.0
  0
VERTEX
  5
91
330
90
100
AcDbEntity
  8
Calque 1
 62
   179
420
  1842203
370
    35
100
AcDbVertex
100
AcDb2dVertex
 10
264.1370231420258
 20
-157.3458828407294
 30
0.0
  0
VERTEX
  5
92
330
90
100
AcDbEntity
  8
Calque 1
 62
   179
420
  1842203
370
    35
100
AcDbVertex
100
AcDb2dVertex
 10
264.1370231420258
 20
-147.3461420884698
 30
0.0
  0
VERTEX
  5
93
330
90
100
AcDbEntity
  8
Calque 1
 62
   179
420
  1842203
370
    35
100
AcDbVertex
100
AcDb2dVertex
 10
267.1380477989863
 20
-147.3461420884698
 30
0.0
  0
VERTEX
  5
94
330
90
100
AcDbEntity
  8
Calque 1
 62
   179
420
  1842203
370
    35
100
AcDbVertex
100
AcDb2dVertex
 10
267.1380477989863
 20
-157.3458828407294
 30
0.0
  0
VERTEX
  5
95
330
90
100
AcDbEntity
  8
Calque 1
 62
   179
420
  1842203
370
    35
100
AcDbVertex
100
AcDb2dVertex
 10
264.1370231420258
 20
-157.3458828407294
 30
0.0
  0
SEQEND
  5
96
330
90
100
AcDbEntity
  8
Calque 1
370
    35
  0
POLYLINE
  5
97
330
1F
100
AcDbEntity
  8
Calque 1
 62
   179
420
  1842203
370
    35
100
AcDb2dPolyline
 66
     1
 10
0.0
 20
0.0
 30
0.0
  0
VERTEX
  5
98
330
97
100
AcDbEntity
  8
Calque 1
 62
   179
420
  1842203
370
    35
100
AcDbVertex
100
AcDb2dVertex
 10
259.1354302170171
 20
-142.3473052416674
 30
0.0
  0
VERTEX
  5
99
330
97
100
AcDbEntity
  8
Calque 1
 62
   179
420
  1842203
370
    35
100
AcDbVertex
100
AcDb2dVertex
 10
249.1356894647575
 20
-142.3473052416674
 30
0.0
  0
VERTEX
  5
9A
330
97
100
AcDbEntity
  8
Calque 1
 62
   179
420
  1842203
370
    35
100
AcDbVertex
100
AcDb2dVertex
 10
249.1356894647575
 20
-139.3473141140344
 30
0.0
  0
VERTEX
  5
9B
330
97
100
AcDbEntity
  8
Calque 1
 62
   179
420
  1842203
370
    35
100
AcDbVertex
100
AcDb2dVertex
 10
259.1354302170171
 20
-139.3473141140344
 30
0.0
  0
VERTEX
  5
9C
330
97
100
AcDbEntity
  8
Calque 1
 62
   179
420
  1842203
370
    35
100
AcDbVertex
100
AcDb2dVertex
 10
259.1354302170171
 20
-142.3473052416674
 30
0.0
  0
SEQEND
  5
9D
330
97
100
AcDbEntity
  8
Calque 1
370
    35
  0
POLYLINE
  5
9E
330
1F
100
AcDbEntity
  8
Calque 1
 62
   179
420
  1842203
370
    35
100
AcDb2dPolyline
 66
     1
 10
0.0
 20
0.0
 30
0.0
  0
VERTEX
  5
9F
330
9E
100
AcDbEntity
  8
Calque 1
 62
   179
420
  1842203
370
    35
100
AcDbVertex
100
AcDb2dVertex
 10
268.6060039536537
 20
-166.8164565773661
 30
0.0
  0
VERTEX
  5
A0
330
9E
100
AcDbEntity
  8
Calque 1
 62
   179
420
  1842203
370
    35
100
AcDbVertex
100
AcDb2dVertex
 10
239.6685608258788
 20
-166.8164565773661
 30
0.0
  0
VERTEX
  5
A1
330
9E
100
AcDbEntity
  8
Calque 1
 62
   179
420
  1842203
370
    35
100
AcDbVertex
100
AcDb2dVertex
 10
239.6685608258788
 20
-137.8790134495911
 30
0.0
  0
VERTEX
  5
A2
330
9E
100
AcDbEntity
  8
Calque 1
 62
   179
420
  1842203
370
    35
100
AcDbVertex
100
AcDb2dVertex
 10
268.6060039536537
 20
-137.8790134495911
 30
0.0
  0
VERTEX
  5
A3
330
9E
100
AcDbEntity
  8
Calque 1
 62
   179
420
  1842203
370
    35
100
AcDbVertex
100
AcDb2dVertex
 10
268.6060039536537
 20
-166.8164565773661
 30
0.0
  0
SEQEND
  5
A4
330
9E
100
AcDbEntity
  8
Calque 1
370
    35
  0
POLYLINE
  5
A5
330
1F
100
AcDbEntity
  8
Calque 1
 62
   179
420
  1842203
370
    35
100
AcDb2dPolyline
 66
     1
 10
0.0
 20
0.0
 30
0.0
  0
VERTEX
  5
A6
330
A5
100
AcDbEntity
  8
Calque 1
 62
   179
420
  1842203
370
    35
100
AcDbVertex
100
AcDb2dVertex
 10
264.1390902006806
 20
-58.23334867726591
 30
0.0
  0
VERTEX
  5
A7
330
A5
100
AcDbEntity
  8
Calque 1
 62
   179
420
  1842203
370
    35
100
AcDbVertex
100
AcDb2dVertex
 10
264.1390902006806
 20
-48.23360792500631
 30
0.0
  0
VERTEX
  5
A8
330
A5
100
AcDbEntity
  8
Calque 1
 62
   179
420
  1842203
370
    35
100
AcDbVertex
100
AcDb2dVertex
 10
267.1397703478652
 20
-48.23360792500631
 30
0.0
  0
VERTEX
  5
A9
330
A5
100
AcDbEntity
  8
Calque 1
 62
   179
420
  1842203
370
    35
100
AcDbVertex
100
AcDb2dVertex
 10
267.1397703478652
 20
-58.23334867726591
 30
0.0
  0
VERTEX
  5
AA
330
A5
100
AcDbEntity
  8
Calque 1
 62
   179
420
  1842203
370
    35
100
AcDbVertex
100
AcDb2dVertex
 10
264.1390902006806
 20
-58.23334867726591
 30
0.0
  0
SEQEND
  5
AB
330
A5
100
AcDbEntity
  8
Calque 1
370
    35
  0
POLYLINE
  5
AC
330
1F
100
AcDbEntity
  8
Calque 1
 62
   179
420
  1842203
370
    35
100
AcDb2dPolyline
 66
     1
 10
0.0
 20
0.0
 30
0.0
  0
VERTEX
  5
AD
330
AC
100
AcDbEntity
  8
Calque 1
 62
   179
420
  1842203
370
    35
100
AcDbVertex
100
AcDb2dVertex
 10
259.1374972756718
 20
-43.2354600977555
 30
0.0
  0
VERTEX
  5
AE
330
AC
100
AcDbEntity
  8
Calque 1
 62
   179
420
  1842203
370
    35
100
AcDbVertex
100
AcDb2dVertex
 10
249.1377565234122
 20
-43.2354600977555
 30
0.0
  0
VERTEX
  5
AF
330
AC
100
AcDbEntity
  8
Calque 1
 62
   179
420
  1842203
370
    35
100
AcDbVertex
100
AcDb2dVertex
 10
249.1377565234122
 20
-40.23477995057087
 30
0.0
  0
VERTEX
  5
B0
330
AC
100
AcDbEntity
  8
Calque 1
 62
   179
420
  1842203
370
    35
100
AcDbVertex
100
AcDb2dVertex
 10
259.1374972756718
 20
-40.23477995057087
 30
0.0
  0
VERTEX
  5
B1
330
AC
100
AcDbEntity
  8
Calque 1
 62
   179
420
  1842203
370
    35
100
AcDbVertex
100
AcDb2dVertex
 10
259.1374972756718
 20
-43.2354600977555
 30
0.0
  0
SEQEND
  5
B2
330
AC
100
AcDbEntity
  8
Calque 1
370
    35
  0
POLYLINE
  5
B3
330
1F
100
AcDbEntity
  8
Calque 1
 62
   179
420
  1842203
370
    35
100
AcDb2dPolyline
 66
     1
 10
0.0
 20
0.0
 30
0.0
  0
VERTEX
  5
B4
330
B3
100
AcDbEntity
  8
Calque 1
 62
   179
420
  1842203
370
    35
100
AcDbVertex
100
AcDb2dVertex
 10
244.1396086961614
 20
-48.23705302276428
 30
0.0
  0
VERTEX
  5
B5
330
B3
100
AcDbEntity
  8
Calque 1
 62
   179
420
  1842203
370
    35
100
AcDbVertex
100
AcDb2dVertex
 10
244.1396086961614
 20
-58.23679377502387
 30
0.0
  0
VERTEX
  5
B6
330
B3
100
AcDbEntity
  8
Calque 1
 62
   179
420
  1842203
370
    35
100
AcDbVertex
100
AcDb2dVertex
 10
241.1389285489768
 20
-58.23679377502387
 30
0.0
  0
VERTEX
  5
B7
330
B3
100
AcDbEntity
  8
Calque 1
 62
   179
420
  1842203
370
    35
100
AcDbVertex
100
AcDb2dVertex
 10
241.1389285489768
 20
-48.23705302276428
 30
0.0
  0
VERTEX
  5
B8
330
B3
100
AcDbEntity
  8
Calque 1
 62
   179
420
  1842203
370
    35
100
AcDbVertex
100
AcDb2dVertex
 10
244.1396086961614
 20
-48.23705302276428
 30
0.0
  0
SEQEND
  5
B9
330
B3
100
AcDbEntity
  8
Calque 1
370
    35
  0
POLYLINE
  5
BA
330
1F
100
AcDbEntity
  8
Calque 1
 62
   179
420
  1842203
370
    35
100
AcDb2dPolyline
 66
     1
 10
0.0
 20
0.0
 30
0.0
  0
VERTEX
  5
BB
330
BA
100
AcDbEntity
  8
Calque 1
 62
   179
420
  1842203
370
    35
100
AcDbVertex
100
AcDb2dVertex
 10
249.1412016211702
 20
-63.23563062182628
 30
0.0
  0
VERTEX
  5
BC
330
BA
100
AcDbEntity
  8
Calque 1
 62
   179
420
  1842203
370
    35
100
AcDbVertex
100
AcDb2dVertex
 10
259.1409423734298
 20
-63.23563062182628
 30
0.0
  0
VERTEX
  5
BD
330
BA
100
AcDbEntity
  8
Calque 1
 62
   179
420
  1842203
370
    35
100
AcDbVertex
100
AcDb2dVertex
 10
259.1409423734298
 20
-66.23562174945933
 30
0.0
  0
VERTEX
  5
BE
330
BA
100
AcDbEntity
  8
Calque 1
 62
   179
420
  1842203
370
    35
100
AcDbVertex
100
AcDb2dVertex
 10
249.1412016211702
 20
-66.23562174945933
 30
0.0
  0
VERTEX
  5
BF
330
BA
100
AcDbEntity
  8
Calque 1
 62
   179
420
  1842203
370
    35
100
AcDbVertex
100
AcDb2dVertex
 10
249.1412016211702
 20
-63.23563062182628
 30
0.0
  0
SEQEND
  5
C0
330
BA
100
AcDbEntity
  8
Calque 1
370
    35
  0
POLYLINE
  5
C1
330
1F
100
AcDbEntity
  8
Calque 1
 62
   179
420
  1842203
370
    35
100
AcDb2dPolyline
 66
     1
 10
0.0
 20
0.0
 30
0.0
  0
VERTEX
  5
C2
330
C1
100
AcDbEntity
  8
Calque 1
 62
   179
420
  1842203
370
    35
100
AcDbVertex
100
AcDb2dVertex
 10
239.6706278845335
 20
-38.76647928612759
 30
0.0
  0
VERTEX
  5
C3
330
C1
100
AcDbEntity
  8
Calque 1
 62
   179
420
  1842203
370
    35
100
AcDbVertex
100
AcDb2dVertex
 10
268.6080710123085
 20
-38.76647928612759
 30
0.0
  0
VERTEX
  5
C4
330
C1
100
AcDbEntity
  8
Calque 1
 62
   179
420
  1842203
370
    35
100
AcDbVertex
100
AcDb2dVertex
 10
268.6080710123085
 20
-67.70392241390259
 30
0.0
  0
VERTEX
  5
C5
330
C1
100
AcDbEntity
  8
Calque 1
 62
   179
420
  1842203
370
    35
100
AcDbVertex
100
AcDb2dVertex
 10
239.6706278845335
 20
-67.70392241390259
 30
0.0
  0
VERTEX
  5
C6
330
C1
100
AcDbEntity
  8
Calque 1
 62
   179
420
  1842203
370
    35
100
AcDbVertex
100
AcDb2dVertex
 10
239.6706278845335
 20
-38.76647928612759
 30
0.0
  0
SEQEND
  5
C7
330
C1
100
AcDbEntity
  8
Calque 1
370
    35
  0
POLYLINE
  5
C8
330
1F
100
AcDbEntity
  8
Calque 1
 62
   179
420
  1842203
370
    35
100
AcDb2dPolyline
 66
     1
 10
0.0
 20
0.0
 30
0.0
  0
VERTEX
  5
C9
330
C8
100
AcDbEntity
  8
Calque 1
 62
   179
420
  1842203
370
    35
100
AcDbVertex
100
AcDb2dVertex
 10
245.7856764049155
 20
-44.87636015987265
 30
0.0
  0
VERTEX
  5
CA
330
C8
100
AcDbEntity
  8
Calque 1
 62
   179
420
  1842203
370
    35
100
AcDbVertex
100
AcDb2dVertex
 10
262.4930224919265
 20
-44.87636015987265
 30
0.0
  0
VERTEX
  5
CB
330
C8
100
AcDbEntity
  8
Calque 1
 62
   179
420
  1842203
370
    35
100
AcDbVertex
100
AcDb2dVertex
 10
262.4930224919265
 20
-61.58370624688365
 30
0.0
  0
VERTEX
  5
CC
330
C8
100
AcDbEntity
  8
Calque 1
 62
   179
420
  1842203
370
    35
100
AcDbVertex
100
AcDb2dVertex
 10
245.7856764049155
 20
-61.58370624688365
 30
0.0
  0
VERTEX
  5
CD
330
C8
100
AcDbEntity
  8
Calque 1
 62
   179
420
  1842203
370
    35
100
AcDbVertex
100
AcDb2dVertex
 10
245.7856764049155
 20
-44.87636015987265
 30
0.0
  0
SEQEND
  5
CE
330
C8
100
AcDbEntity
  8
Calque 1
370
    35
  0
SPLINE
  5
CF
330
1F
100
AcDbEntity
  8
Calque 1
 62
   179
420
  1842203
370
    35
100
AcDbSpline
210
0.0
220
0.0
230
1.0
 70
    11
 71
     3
 72
    17
 73
    13
 74
     0
 42
0.0000000001
 43
0.0000000001
 40
0.0
 40
0.0
 40
0.0
 40
0.0
 40
1.0
 40
1.0
 40
1.0
 40
2.0
 40
2.0
 40
2.0
 40
3.0
 40
3.0
 40
3.0
 40
4.0
 40
4.0
 40
4.0
 40
4.0
 10
254.1359043506631
 20
-144.8525803312571
 30
0.0
 10
258.2776008752846
 20
-144.8525803312571
 30
0.0
 10
261.6351931501941
 20
-148.2108616257182
 30
0.0
 10
261.6351931501941
 20
-152.3525581503397
 30
0.0
 10
261.6351931501941
 20
-156.4949436945129
 30
0.0
 10
258.2776008752846
 20
-159.8525359694223
 30
0.0
 10
254.1359043506631
 20
-159.8525359694223
 30
0.0
 10
249.9935188064899
 20
-159.8525359694223
 30
0.0
 10
246.6359265315805
 20
-156.4949436945129
 30
0.0
 10
246.6359265315805
 20
-152.3525581503397
 30
0.0
 10
246.6359265315805
 20
-148.2108616257182
 30
0.0
 10
249.9935188064899
 20
-144.8525803312571
 30
0.0
 10
254.1359043506631
 20
-144.8525803312571
 30
0.0
  0
POLYLINE
  5
D0
330
1F
100
AcDbEntity
  8
Calque 1
 62
   179
420
  1842203
370
    35
100
AcDb2dPolyline
 66
     1
 10
0.0
 20
0.0
 30
0.0
  0
VERTEX
  5
D1
330
D0
100
AcDbEntity
  8
Calque 1
 62
   179
420
  1842203
370
    35
100
AcDbVertex
100
AcDb2dVertex
 10
172.9647502911124
 20
-161.1068960630962
 30
0.0
  0
VERTEX
  5
D2
330
D0
100
AcDbEntity
  8
Calque 1
 62
   179
420
  1842203
370
    35
100
AcDbVertex
100
AcDb2dVertex
 10
172.9647502911124
 20
-41.10656193822307
 30
0.0
  0
VERTEX
  5
D3
330
D0
100
AcDbEntity
  8
Calque 1
 62
   179
420
  1842203
370
    35
100
AcDbVertex
100
AcDb2dVertex
 10
167.9645354052068
 20
-41.10656193822307
 30
0.0
  0
VERTEX
  5
D4
330
D0
100
AcDbEntity
  8
Calque 1
 62
   179
420
  1842203
370
    35
100
AcDbVertex
100
AcDb2dVertex
 10
167.9645354052068
 20
-37.60634261613399
 30
0.0
  0
VERTEX
  5
D5
330
D0
100
AcDbEntity
  8
Calque 1
 62
   179
420
  1842203
370
    35
100
AcDbVertex
100
AcDb2dVertex
 10
157.9647946529472
 20
-37.60634261613399
 30
0.0
  0
VERTEX
  5
D6
330
D0
100
AcDbEntity
  8
Calque 1
 62
   179
420
  1842203
370
    35
100
AcDbVertex
100
AcDb2dVertex
 10
157.9647946529472
 20
-41.10656193822307
 30
0.0
  0
VERTEX
  5
D7
330
D0
100
AcDbEntity
  8
Calque 1
 62
   179
420
  1842203
370
    35
100
AcDbVertex
100
AcDb2dVertex
 10
152.9645797670416
 20
-41.10656193822307
 30
0.0
  0
VERTEX
  5
D8
330
D0
100
AcDbEntity
  8
Calque 1
 62
   179
420
  1842203
370
    35
100
AcDbVertex
100
AcDb2dVertex
 10
152.9645797670416
 20
-161.1068960630962
 30
0.0
  0
VERTEX
  5
D9
330
D0
100
AcDbEntity
  8
Calque 1
 62
   179
420
  1842203
370
    35
100
AcDbVertex
100
AcDb2dVertex
 10
157.9647946529472
 20
-161.1068960630962
 30
0.0
  0
VERTEX
  5
DA
330
D0
100
AcDbEntity
  8
Calque 1
 62
   179
420
  1842203
370
    35
100
AcDbVertex
100
AcDb2dVertex
 10
157.9647946529472
 20
-164.1068871907292
 30
0.0
  0
VERTEX
  5
DB
330
D0
100
AcDbEntity
  8
Calque 1
 62
   179
420
  1842203
370
    35
100
AcDbVertex
100
AcDb2dVertex
 10
167.9645354052068
 20
-164.1068871907292
 30
0.0
  0
VERTEX
  5
DC
330
D0
100
AcDbEntity
  8
Calque 1
 62
   179
420
  1842203
370
    35
100
AcDbVertex
100
AcDb2dVertex
 10
167.9645354052068
 20
-161.1068960630962
 30
0.0
  0
VERTEX
  5
DD
330
D0
100
AcDbEntity
  8
Calque 1
 62
   179
420
  1842203
370
    35
100
AcDbVertex
100
AcDb2dVertex
 10
172.9647502911124
 20
-161.1068960630962
 30
0.0
  0
SEQEND
  5
DE
330
D0
100
AcDbEntity
  8
Calque 1
370
    35
  0
POLYLINE
  5
DF
330
1F
100
AcDbEntity
  8
Calque 1
 62
   179
420
  1842203
370
    35
100
AcDb2dPolyline
 66
     1
 10
0.0
 20
0.0
 30
0.0
  0
VERTEX
  5
E0
330
DF
100
AcDbEntity
  8
Calque 1
 62
   179
420
  1842203
370
    35
100
AcDbVertex
100
AcDb2dVertex
 10
192.9649208151832
 20
-161.1068960630962
 30
0.0
  0
VERTEX
  5
E1
330
DF
100
AcDbEntity
  8
Calque 1
 62
   179
420
  1842203
370
    35
100
AcDbVertex
100
AcDb2dVertex
 10
192.9649208151832
 20
-41.10656193822307
 30
0.0
  0
VERTEX
  5
E2
330
DF
100
AcDbEntity
  8
Calque 1
 62
   179
420
  1842203
370
    35
100
AcDbVertex
100
AcDb2dVertex
 10
187.9647059292776
 20
-41.10656193822307
 30
0.0
  0
VERTEX
  5
E3
330
DF
100
AcDbEntity
  8
Calque 1
 62
   179
420
  1842203
370
    35
100
AcDbVertex
100
AcDb2dVertex
 10
187.9647059292776
 20
-37.60634261613399
 30
0.0
  0
VERTEX
  5
E4
330
DF
100
AcDbEntity
  8
Calque 1
 62
   179
420
  1842203
370
    35
100
AcDbVertex
100
AcDb2dVertex
 10
177.964965177018
 20
-37.60634261613399
 30
0.0
  0
VERTEX
  5
E5
330
DF
100
AcDbEntity
  8
Calque 1
 62
   179
420
  1842203
370
    35
100
AcDbVertex
100
AcDb2dVertex
 10
177.964965177018
 20
-41.10656193822307
 30
0.0
  0
VERTEX
  5
E6
330
DF
100
AcDbEntity
  8
Calque 1
 62
   179
420
  1842203
370
    35
100
AcDbVertex
100
AcDb2dVertex
 10
172.9647502911124
 20
-41.10656193822307
 30
0.0
  0
VERTEX
  5
E7
330
DF
100
AcDbEntity
  8
Calque 1
 62
   179
420
  1842203
370
    35
100
AcDbVertex
100
AcDb2dVertex
 10
172.9647502911124
 20
-161.1068960630962
 30
0.0
  0
VERTEX
  5
E8
330
DF
100
AcDbEntity
  8
Calque 1
 62
   179
420
  1842203
370
    35
100
AcDbVertex
100
AcDb2dVertex
 10
177.964965177018
 20
-161.1068960630962
 30
0.0
  0
VERTEX
  5
E9
330
DF
100
AcDbEntity
  8
Calque 1
 62
   179
420
  1842203
370
    35
100
AcDbVertex
100
AcDb2dVertex
 10
177.964965177018
 20
-164.1068871907292
 30
0.0
  0
VERTEX
  5
EA
330
DF
100
AcDbEntity
  8
Calque 1
 62
   179
420
  1842203
370
    35
100
AcDbVertex
100
AcDb2dVertex
 10
187.9647059292776
 20
-164.1068871907292
 30
0.0
  0
VERTEX
  5
EB
330
DF
100
AcDbEntity
  8
Calque 1
 62
   179
420
  1842203
370
    35
100
AcDbVertex
100
AcDb2dVertex
 10
187.9647059292776
 20
-161.1068960630962
 30
0.0
  0
VERTEX
  5
EC
330
DF
100
AcDbEntity
  8
Calque 1
 62
   179
420
  1842203
370
    35
100
AcDbVertex
100
AcDb2dVertex
 10
192.9649208151832
 20
-161.1068960630962
 30
0.0
  0
SEQEND
  5
ED
330
DF
100
AcDbEntity
  8
Calque 1
370
    35
  0
POLYLINE
  5
EE
330
1F
100
AcDbEntity
  8
Calque 1
 62
   179
420
  1842203
370
    35
100
AcDb2dPolyline
 66
     1
 10
0.0
 20
0.0
 30
0.0
  0
VERTEX
  5
EF
330
EE
100
AcDbEntity
  8
Calque 1
 62
   179
420
  1842203
370
    35
100
AcDbVertex
100
AcDb2dVertex
 10
212.965091339254
 20
-161.1068960630962
 30
0.0
  0
VERTEX
  5
F0
330
EE
100
AcDbEntity
  8
Calque 1
 62
   179
420
  1842203
370
    35
100
AcDbVertex
100
AcDb2dVertex
 10
212.965091339254
 20
-41.10656193822307
 30
0.0
  0
VERTEX
  5
F1
330
EE
100
AcDbEntity
  8
Calque 1
 62
   179
420
  1842203
370
    35
100
AcDbVertex
100
AcDb2dVertex
 10
207.9648764533484
 20
-41.10656193822307
 30
0.0
  0
VERTEX
  5
F2
330
EE
100
AcDbEntity
  8
Calque 1
 62
   179
420
  1842203
370
    35
100
AcDbVertex
100
AcDb2dVertex
 10
207.9648764533484
 20
-37.60634261613399
 30
0.0
  0
VERTEX
  5
F3
330
EE
100
AcDbEntity
  8
Calque 1
 62
   179
420
  1842203
370
    35
100
AcDbVertex
100
AcDb2dVertex
 10
197.9651357010888
 20
-37.60634261613399
 30
0.0
  0
VERTEX
  5
F4
330
EE
100
AcDbEntity
  8
Calque 1
 62
   179
420
  1842203
370
    35
100
AcDbVertex
100
AcDb2dVertex
 10
197.9651357010888
 20
-41.10656193822307
 30
0.0
  0
VERTEX
  5
F5
330
EE
100
AcDbEntity
  8
Calque 1
 62
   179
420
  1842203
370
    35
100
AcDbVertex
100
AcDb2dVertex
 10
192.9649208151832
 20
-41.10656193822307
 30
0.0
  0
VERTEX
  5
F6
330
EE
100
AcDbEntity
  8
Calque 1
 62
   179
420
  1842203
370
    35
100
AcDbVertex
100
AcDb2dVertex
 10
192.9649208151832
 20
-161.1068960630962
 30
0.0
  0
VERTEX
  5
F7
330
EE
100
AcDbEntity
  8
Calque 1
 62
   179
420
  1842203
370
    35
100
AcDbVertex
100
AcDb2dVertex
 10
197.9651357010888
 20
-161.1068960630962
 30
0.0
  0
VERTEX
  5
F8
330
EE
100
AcDbEntity
  8
Calque 1
 62
   179
420
  1842203
370
    35
100
AcDbVertex
100
AcDb2dVertex
 10
197.9651357010888
 20
-164.1068871907292
 30
0.0
  0
VERTEX
  5
F9
330
EE
100
AcDbEntity
  8
Calque 1
 62
   179
420
  1842203
370
    35
100
AcDbVertex
100
AcDb2dVertex
 10
207.9648764533484
 20
-164.1068871907292
 30
0.0
  0
VERTEX
  5
FA
330
EE
100
AcDbEntity
  8
Calque 1
 62
   179
420
  1842203
370
    35
100
AcDbVertex
100
AcDb2dVertex
 10
207.9648764533484
 20
-161.1068960630962
 30
0.0
  0
VERTEX
  5
FB
330
EE
100
AcDbEntity
  8
Calque 1
 62
   179
420
  1842203
370
    35
100
AcDbVertex
100
AcDb2dVertex
 10
212.965091339254
 20
-161.1068960630962
 30
0.0
  0
SEQEND
  5
FC
330
EE
100
AcDbEntity
  8
Calque 1
370
    35
  0
POLYLINE
  5
FD
330
1F
100
AcDbEntity
  8
Calque 1
 62
   179
420
  1842203
370
    35
100
AcDb2dPolyline
 66
     1
 10
0.0
 20
0.0
 30
0.0
  0
VERTEX
  5
FE
330
FD
100
AcDbEntity
  8
Calque 1
 62
   179
420
  1842203
370
    35
100
AcDbVertex
100
AcDb2dVertex
 10
232.9650896084369
 20
-161.1068960630962
 30
0.0
  0
VERTEX
  5
FF
330
FD
100
AcDbEntity
  8
Calque 1
 62
   179
420
  1842203
370
    35
100
AcDbVertex
100
AcDb2dVertex
 10
232.9650896084369
 20
-41.10656193822307
 30
0.0
  0
VERTEX
  5
100
330
FD
100
AcDbEntity
  8
Calque 1
 62
   179
420
  1842203
370
    35
100
AcDbVertex
100
AcDb2dVertex
 10
227.9648747225313
 20
-41.10656193822307
 30
0.0
  0
VERTEX
  5
101
330
FD
100
AcDbEntity
  8
Calque 1
 62
   179
420
  1842203
370
    35
100
AcDbVertex
100
AcDb2dVertex
 10
227.9648747225313
 20
-37.60634261613399
 30
0.0
  0
VERTEX
  5
102
330
FD
100
AcDbEntity
  8
Calque 1
 62
   179
420
  1842203
370
    35
100
AcDbVertex
100
AcDb2dVertex
 10
217.9651339702717
 20
-37.60634261613399
 30
0.0
  0
VERTEX
  5
103
330
FD
100
AcDbEntity
  8
Calque 1
 62
   179
420
  1842203
370
    35
100
AcDbVertex
100
AcDb2dVertex
 10
217.9651339702717
 20
-41.10656193822307
 30
0.0
  0
VERTEX
  5
104
330
FD
100
AcDbEntity
  8
Calque 1
 62
   179
420
  1842203
370
    35
100
AcDbVertex
100
AcDb2dVertex
 10
212.965091339254
 20
-41.10656193822307
 30
0.0
  0
VERTEX
  5
105
330
FD
100
AcDbEntity
  8
Calque 1
 62
   179
420
  1842203
370
    35
100
AcDbVertex
100
AcDb2dVertex
 10
212.965091339254
 20
-161.1068960630962
 30
0.0
  0
VERTEX
  5
106
330
FD
100
AcDbEntity
  8
Calque 1
 62
   179
420
  1842203
370
    35
100
AcDbVertex
100
AcDb2dVertex
 10
217.9651339702717
 20
-161.1068960630962
 30
0.0
  0
VERTEX
  5
107
330
FD
100
AcDbEntity
  8
Calque 1
 62
   179
420
  1842203
370
    35
100
AcDbVertex
100
AcDb2dVertex
 10
217.9651339702717
 20
-164.1068871907292
 30
0.0
  0
VERTEX
  5
108
330
FD
100
AcDbEntity
  8
Calque 1
 62
   179
420
  1842203
370
    35
100
AcDbVertex
100
AcDb2dVertex
 10
227.9648747225313
 20
-164.1068871907292
 30
0.0
  0
VERTEX
  5
109
330
FD
100
AcDbEntity
  8
Calque 1
 62
   179
420
  1842203
370
    35
100
AcDbVertex
100
AcDb2dVertex
 10
227.9648747225313
 20
-161.1068960630962
 30
0.0
  0
VERTEX
  5
10A
330
FD
100
AcDbEntity
  8
Calque 1
 62
   179
420
  1842203
370
    35
100
AcDbVertex
100
AcDb2dVertex
 10
232.9650896084369
 20
-161.1068960630962
 30
0.0
  0
SEQEND
  5
10B
330
FD
100
AcDbEntity
  8
Calque 1
370
    35
  0
POLYLINE
  5
10C
330
1F
100
AcDbEntity
  8
Calque 1
 62
   179
420
  1842203
370
    35
100
AcDb2dPolyline
 66
     1
 10
0.0
 20
0.0
 30
0.0
  0
VERTEX
  5
10D
330
10C
100
AcDbEntity
  8
Calque 1
 62
   179
420
  1842203
370
    35
100
AcDbVertex
100
AcDb2dVertex
 10
465.6876443347133
 20
-234.1457246100904
 30
0.0
  0
VERTEX
  5
10E
330
10C
100
AcDbEntity
  8
Calque 1
 62
   179
420
  1842203
370
    35
100
AcDbVertex
100
AcDb2dVertex
 10
443.7017194629533
 20
-246.8381537699728
 30
0.0
  0
VERTEX
  5
10F
330
10C
100
AcDbEntity
  8
Calque 1
 62
   179
420
  1842203
370
    35
100
AcDbVertex
100
AcDb2dVertex
 10
421.7161391009693
 20
-234.1457246100904
 30
0.0
  0
VERTEX
  5
110
330
10C
100
AcDbEntity
  8
Calque 1
 62
   179
420
  1842203
370
    35
100
AcDbVertex
100
AcDb2dVertex
 10
421.7161391009693
 20
-208.7584547218949
 30
0.0
  0
VERTEX
  5
111
330
10C
100
AcDbEntity
  8
Calque 1
 62
   179
420
  1842203
370
    35
100
AcDbVertex
100
AcDb2dVertex
 10
443.7013749531776
 20
-196.066714581564
 30
0.0
  0
VERTEX
  5
112
330
10C
100
AcDbEntity
  8
Calque 1
 62
   179
420
  1842203
370
    35
100
AcDbVertex
100
AcDb2dVertex
 10
465.6862662956101
 20
-208.7591437414465
 30
0.0
  0
VERTEX
  5
113
330
10C
100
AcDbEntity
  8
Calque 1
 62
   179
420
  1842203
370
    35
100
AcDbVertex
100
AcDb2dVertex
 10
465.6876443347133
 20
-234.1457246100904
 30
0.0
  0
SEQEND
  5
114
330
10C
100
AcDbEntity
  8
Calque 1
370
    35
  0
POLYLINE
  5
115
330
1F
100
AcDbEntity
  8
Calque 1
 62
   179
420
  1842203
370
    35
100
AcDb2dPolyline
 66
     1
 10
0.0
 20
0.0
 30
0.0
  0
VERTEX
  5
116
330
115
100
AcDbEntity
  8
Calque 1
 62
   179
420
  1842203
370
    35
100
AcDbVertex
100
AcDb2dVertex
 10
421.7161391009693
 20
-102.9259128717513
 30
0.0
  0
VERTEX
  5
117
330
115
100
AcDbEntity
  8
Calque 1
 62
   179
420
  1842203
370
    35
100
AcDbVertex
100
AcDb2dVertex
 10
443.7020639727291
 20
-90.23348371186886
 30
0.0
  0
VERTEX
  5
118
330
115
100
AcDbEntity
  8
Calque 1
 62
   179
420
  1842203
370
    35
100
AcDbVertex
100
AcDb2dVertex
 10
465.6876443347133
 20
-102.9259128717513
 30
0.0
  0
VERTEX
  5
119
330
115
100
AcDbEntity
  8
Calque 1
 62
   179
420
  1842203
370
    35
100
AcDbVertex
100
AcDb2dVertex
 10
465.6876443347133
 20
-128.3126659952831
 30
0.0
  0
VERTEX
  5
11A
330
115
100
AcDbEntity
  8
Calque 1
 62
   179
420
  1842203
370
    35
100
AcDbVertex
100
AcDb2dVertex
 10
443.7024084825049
 20
-141.0044061356139
 30
0.0
  0
VERTEX
  5
11B
330
115
100
AcDbEntity
  8
Calque 1
 62
   179
420
  1842203
370
    35
100
AcDbVertex
100
AcDb2dVertex
 10
421.7175171400725
 20
-128.3119769757315
 30
0.0
  0
VERTEX
  5
11C
330
115
100
AcDbEntity
  8
Calque 1
 62
   179
420
  1842203
370
    35
100
AcDbVertex
100
AcDb2dVertex
 10
421.7161391009693
 20
-102.9259128717513
 30
0.0
  0
SEQEND
  5
11D
330
115
100
AcDbEntity
  8
Calque 1
370
    35
  0
POLYLINE
  5
11E
330
1F
100
AcDbEntity
  8
Calque 1
 62
   179
420
  1842203
370
    35
100
AcDb2dPolyline
 66
     1
 10
0.0
 20
0.0
 30
0.0
  0
VERTEX
  5
11F
330
11E
100
AcDbEntity
  8
Calque 1
 62
   179
420
  1842203
370
    35
100
AcDbVertex
100
AcDb2dVertex
 10
461.0236709899847
 20
-120.6176956430999
 30
0.0
  0
VERTEX
  5
120
330
11E
100
AcDbEntity
  8
Calque 1
 62
   179
420
  1842203
370
    35
100
AcDbVertex
100
AcDb2dVertex
 10
461.0236709899847
 20
-110.6181271457282
 30
0.0
  0
VERTEX
  5
121
330
11E
100
AcDbEntity
  8
Calque 1
 62
   179
420
  1842203
370
    35
100
AcDbVertex
100
AcDb2dVertex
 10
464.0240066273936
 20
-110.6181271457282
 30
0.0
  0
VERTEX
  5
122
330
11E
100
AcDbEntity
  8
Calque 1
 62
   179
420
  1842203
370
    35
100
AcDbVertex
100
AcDb2dVertex
 10
464.0240066273936
 20
-120.6176956430999
 30
0.0
  0
VERTEX
  5
123
330
11E
100
AcDbEntity
  8
Calque 1
 62
   179
420
  1842203
370
    35
100
AcDbVertex
100
AcDb2dVertex
 10
461.0236709899847
 20
-120.6176956430999
 30
0.0
  0
SEQEND
  5
124
330
11E
100
AcDbEntity
  8
Calque 1
370
    35
  0
POLYLINE
  5
125
330
1F
100
AcDbEntity
  8
Calque 1
 62
   179
420
  1842203
370
    35
100
AcDb2dPolyline
 66
     1
 10
0.0
 20
0.0
 30
0.0
  0
VERTEX
  5
126
330
125
100
AcDbEntity
  8
Calque 1
 62
   179
420
  1842203
370
    35
100
AcDbVertex
100
AcDb2dVertex
 10
456.6921495788995
 20
-103.1195273657488
 30
0.0
  0
VERTEX
  5
127
330
125
100
AcDbEntity
  8
Calque 1
 62
   179
420
  1842203
370
    35
100
AcDbVertex
100
AcDb2dVertex
 10
448.0322073447112
 20
-98.11931247984316
 30
0.0
  0
VERTEX
  5
128
330
125
100
AcDbEntity
  8
Calque 1
 62
   179
420
  1842203
370
    35
100
AcDbVertex
100
AcDb2dVertex
 10
449.5322029085277
 20
-95.52101975078845
 30
0.0
  0
VERTEX
  5
129
330
125
100
AcDbEntity
  8
Calque 1
 62
   179
420
  1842203
370
    35
100
AcDbVertex
100
AcDb2dVertex
 10
458.1924896524918
 20
-100.5205456171424
 30
0.0
  0
VERTEX
  5
12A
330
125
100
AcDbEntity
  8
Calque 1
 62
   179
420
  1842203
370
    35
100
AcDbVertex
100
AcDb2dVertex
 10
456.6921495788995
 20
-103.1195273657488
 30
0.0
  0
SEQEND
  5
12B
330
125
100
AcDbEntity
  8
Calque 1
370
    35
  0
POLYLINE
  5
12C
330
1F
100
AcDbEntity
  8
Calque 1
 62
   179
420
  1842203
370
    35
100
AcDb2dPolyline
 66
     1
 10
0.0
 20
0.0
 30
0.0
  0
VERTEX
  5
12D
330
12C
100
AcDbEntity
  8
Calque 1
 62
   179
420
  1842203
370
    35
100
AcDbVertex
100
AcDb2dVertex
 10
439.3722651105229
 20
-98.12069051894633
 30
0.0
  0
VERTEX
  5
12E
330
12C
100
AcDbEntity
  8
Calque 1
 62
   179
420
  1842203
370
    35
100
AcDbVertex
100
AcDb2dVertex
 10
430.7123228763346
 20
-103.1209054048519
 30
0.0
  0
VERTEX
  5
12F
330
12C
100
AcDbEntity
  8
Calque 1
 62
   179
420
  1842203
370
    35
100
AcDbVertex
100
AcDb2dVertex
 10
429.2119828027423
 20
-100.5226126757972
 30
0.0
  0
VERTEX
  5
130
330
12C
100
AcDbEntity
  8
Calque 1
 62
   179
420
  1842203
370
    35
100
AcDbVertex
100
AcDb2dVertex
 10
437.8722695467064
 20
-95.52239778989163
 30
0.0
  0
VERTEX
  5
131
330
12C
100
AcDbEntity
  8
Calque 1
 62
   179
420
  1842203
370
    35
100
AcDbVertex
100
AcDb2dVertex
 10
439.3722651105229
 20
-98.12069051894633
 30
0.0
  0
SEQEND
  5
132
330
12C
100
AcDbEntity
  8
Calque 1
370
    35
  0
POLYLINE
  5
133
330
1F
100
AcDbEntity
  8
Calque 1
 62
   179
420
  1842203
370
    35
100
AcDb2dPolyline
 66
     1
 10
0.0
 20
0.0
 30
0.0
  0
VERTEX
  5
134
330
133
100
AcDbEntity
  8
Calque 1
 62
   179
420
  1842203
370
    35
100
AcDbVertex
100
AcDb2dVertex
 10
426.3839020532316
 20
-110.6208832239345
 30
0.0
  0
VERTEX
  5
135
330
133
100
AcDbEntity
  8
Calque 1
 62
   179
420
  1842203
370
    35
100
AcDbVertex
100
AcDb2dVertex
 10
426.3842465630074
 20
-120.6211407408578
 30
0.0
  0
VERTEX
  5
136
330
133
100
AcDbEntity
  8
Calque 1
 62
   179
420
  1842203
370
    35
100
AcDbVertex
100
AcDb2dVertex
 10
423.3835664158227
 20
-120.6211407408578
 30
0.0
  0
VERTEX
  5
137
330
133
100
AcDbEntity
  8
Calque 1
 62
   179
420
  1842203
370
    35
100
AcDbVertex
100
AcDb2dVertex
 10
423.3832219060469
 20
-110.6208832239345
 30
0.0
  0
VERTEX
  5
138
330
133
100
AcDbEntity
  8
Calque 1
 62
   179
420
  1842203
370
    35
100
AcDbVertex
100
AcDb2dVertex
 10
426.3839020532316
 20
-110.6208832239345
 30
0.0
  0
SEQEND
  5
139
330
133
100
AcDbEntity
  8
Calque 1
370
    35
  0
POLYLINE
  5
13A
330
1F
100
AcDbEntity
  8
Calque 1
 62
   179
420
  1842203
370
    35
100
AcDb2dPolyline
 66
     1
 10
0.0
 20
0.0
 30
0.0
  0
VERTEX
  5
13B
330
13A
100
AcDbEntity
  8
Calque 1
 62
   179
420
  1842203
370
    35
100
AcDbVertex
100
AcDb2dVertex
 10
430.7154234643168
 20
-128.1197405208372
 30
0.0
  0
VERTEX
  5
13C
330
13A
100
AcDbEntity
  8
Calque 1
 62
   179
420
  1842203
370
    35
100
AcDbVertex
100
AcDb2dVertex
 10
439.3757102082809
 20
-133.1199554067428
 30
0.0
  0
VERTEX
  5
13D
330
13A
100
AcDbEntity
  8
Calque 1
 62
   179
420
  1842203
370
    35
100
AcDbVertex
100
AcDb2dVertex
 10
437.8750256249128
 20
-135.7182481357975
 30
0.0
  0
VERTEX
  5
13E
330
13A
100
AcDbEntity
  8
Calque 1
 62
   179
420
  1842203
370
    35
100
AcDbVertex
100
AcDb2dVertex
 10
429.2147388809487
 20
-130.7187222694435
 30
0.0
  0
VERTEX
  5
13F
330
13A
100
AcDbEntity
  8
Calque 1
 62
   179
420
  1842203
370
    35
100
AcDbVertex
100
AcDb2dVertex
 10
430.7154234643168
 20
-128.1197405208372
 30
0.0
  0
SEQEND
  5
140
330
13A
100
AcDbEntity
  8
Calque 1
370
    35
  0
POLYLINE
  5
141
330
1F
100
AcDbEntity
  8
Calque 1
 62
   179
420
  1842203
370
    35
100
AcDb2dPolyline
 66
     1
 10
0.0
 20
0.0
 30
0.0
  0
VERTEX
  5
142
330
141
100
AcDbEntity
  8
Calque 1
 62
   179
420
  1842203
370
    35
100
AcDbVertex
100
AcDb2dVertex
 10
448.0353079326934
 20
-133.1185773676396
 30
0.0
  0
VERTEX
  5
143
330
141
100
AcDbEntity
  8
Calque 1
 62
   179
420
  1842203
370
    35
100
AcDbVertex
100
AcDb2dVertex
 10
456.6955946766575
 20
-128.118362481734
 30
0.0
  0
VERTEX
  5
144
330
141
100
AcDbEntity
  8
Calque 1
 62
   179
420
  1842203
370
    35
100
AcDbVertex
100
AcDb2dVertex
 10
458.1959347502498
 20
-130.7166552107888
 30
0.0
  0
VERTEX
  5
145
330
141
100
AcDbEntity
  8
Calque 1
 62
   179
420
  1842203
370
    35
100
AcDbVertex
100
AcDb2dVertex
 10
449.5356480062857
 20
-135.7168700966944
 30
0.0
  0
VERTEX
  5
146
330
141
100
AcDbEntity
  8
Calque 1
 62
   179
420
  1842203
370
    35
100
AcDbVertex
100
AcDb2dVertex
 10
448.0353079326934
 20
-133.1185773676396
 30
0.0
  0
SEQEND
  5
147
330
141
100
AcDbEntity
  8
Calque 1
370
    35
  0
POLYLINE
  5
148
330
1F
100
AcDbEntity
  8
Calque 1
 62
   179
420
  1842203
370
    35
100
AcDb2dPolyline
 66
     1
 10
0.0
 20
0.0
 30
0.0
  0
VERTEX
  5
149
330
148
100
AcDbEntity
  8
Calque 1
 62
   179
420
  1842203
370
    35
100
AcDbVertex
100
AcDb2dVertex
 10
465.6876443347133
 20
-181.0636583554167
 30
0.0
  0
VERTEX
  5
14A
330
148
100
AcDbEntity
  8
Calque 1
 62
   179
420
  1842203
370
    35
100
AcDbVertex
100
AcDb2dVertex
 10
443.7017194629533
 20
-193.7560875152991
 30
0.0
  0
VERTEX
  5
14B
330
148
100
AcDbEntity
  8
Calque 1
 62
   179
420
  1842203
370
    35
100
AcDbVertex
100
AcDb2dVertex
 10
421.7161391009693
 20
-181.0636583554167
 30
0.0
  0
VERTEX
  5
14C
330
148
100
AcDbEntity
  8
Calque 1
 62
   179
420
  1842203
370
    35
100
AcDbVertex
100
AcDb2dVertex
 10
421.7161391009693
 20
-155.676732976997
 30
0.0
  0
VERTEX
  5
14D
330
148
100
AcDbEntity
  8
Calque 1
 62
   179
420
  1842203
370
    35
100
AcDbVertex
100
AcDb2dVertex
 10
443.7013749531776
 20
-142.9849928366661
 30
0.0
  0
VERTEX
  5
14E
330
148
100
AcDbEntity
  8
Calque 1
 62
   179
420
  1842203
370
    35
100
AcDbVertex
100
AcDb2dVertex
 10
465.6862662956101
 20
-155.6774219965486
 30
0.0
  0
VERTEX
  5
14F
330
148
100
AcDbEntity
  8
Calque 1
 62
   179
420
  1842203
370
    35
100
AcDbVertex
100
AcDb2dVertex
 10
465.6876443347133
 20
-181.0636583554167
 30
0.0
  0
SEQEND
  5
150
330
148
100
AcDbEntity
  8
Calque 1
370
    35
  0
POLYLINE
  5
151
330
1F
100
AcDbEntity
  8
Calque 1
 62
   179
420
  1842203
370
    35
100
AcDb2dPolyline
 66
     1
 10
0.0
 20
0.0
 30
0.0
  0
VERTEX
  5
152
330
151
100
AcDbEntity
  8
Calque 1
 62
   179
420
  1842203
370
    35
100
AcDbVertex
100
AcDb2dVertex
 10
426.3801124456978
 20
-163.3717033291802
 30
0.0
  0
VERTEX
  5
153
330
151
100
AcDbEntity
  8
Calque 1
 62
   179
420
  1842203
370
    35
100
AcDbVertex
100
AcDb2dVertex
 10
426.3801124456978
 20
-173.3714440814398
 30
0.0
  0
VERTEX
  5
154
330
151
100
AcDbEntity
  8
Calque 1
 62
   179
420
  1842203
370
    35
100
AcDbVertex
100
AcDb2dVertex
 10
423.379776808289
 20
-173.3714440814398
 30
0.0
  0
VERTEX
  5
155
330
151
100
AcDbEntity
  8
Calque 1
 62
   179
420
  1842203
370
    35
100
AcDbVertex
100
AcDb2dVertex
 10
423.379776808289
 20
-163.3717033291802
 30
0.0
  0
VERTEX
  5
156
330
151
100
AcDbEntity
  8
Calque 1
 62
   179
420
  1842203
370
    35
100
AcDbVertex
100
AcDb2dVertex
 10
426.3801124456978
 20
-163.3717033291802
 30
0.0
  0
SEQEND
  5
157
330
151
100
AcDbEntity
  8
Calque 1
370
    35
  0
POLYLINE
  5
158
330
1F
100
AcDbEntity
  8
Calque 1
 62
   179
420
  1842203
370
    35
100
AcDb2dPolyline
 66
     1
 10
0.0
 20
0.0
 30
0.0
  0
VERTEX
  5
159
330
158
100
AcDbEntity
  8
Calque 1
 62
   179
420
  1842203
370
    35
100
AcDbVertex
100
AcDb2dVertex
 10
430.711633856783
 20
-180.8700438614192
 30
0.0
  0
VERTEX
  5
15A
330
158
100
AcDbEntity
  8
Calque 1
 62
   179
420
  1842203
370
    35
100
AcDbVertex
100
AcDb2dVertex
 10
439.3715760909713
 20
-185.8702587473248
 30
0.0
  0
VERTEX
  5
15B
330
158
100
AcDbEntity
  8
Calque 1
 62
   179
420
  1842203
370
    35
100
AcDbVertex
100
AcDb2dVertex
 10
437.8715805271548
 20
-188.4685514763795
 30
0.0
  0
VERTEX
  5
15C
330
158
100
AcDbEntity
  8
Calque 1
 62
   179
420
  1842203
370
    35
100
AcDbVertex
100
AcDb2dVertex
 10
429.2112937831907
 20
-183.4690256100255
 30
0.0
  0
VERTEX
  5
15D
330
158
100
AcDbEntity
  8
Calque 1
 62
   179
420
  1842203
370
    35
100
AcDbVertex
100
AcDb2dVertex
 10
430.711633856783
 20
-180.8700438614192
 30
0.0
  0
SEQEND
  5
15E
330
158
100
AcDbEntity
  8
Calque 1
370
    35
  0
POLYLINE
  5
15F
330
1F
100
AcDbEntity
  8
Calque 1
 62
   179
420
  1842203
370
    35
100
AcDb2dPolyline
 66
     1
 10
0.0
 20
0.0
 30
0.0
  0
VERTEX
  5
160
330
15F
100
AcDbEntity
  8
Calque 1
 62
   179
420
  1842203
370
    35
100
AcDbVertex
100
AcDb2dVertex
 10
448.0315183251596
 20
-185.8688807082216
 30
0.0
  0
VERTEX
  5
161
330
15F
100
AcDbEntity
  8
Calque 1
 62
   179
420
  1842203
370
    35
100
AcDbVertex
100
AcDb2dVertex
 10
456.6914605593479
 20
-180.868665822316
 30
0.0
  0
VERTEX
  5
162
330
15F
100
AcDbEntity
  8
Calque 1
 62
   179
420
  1842203
370
    35
100
AcDbVertex
100
AcDb2dVertex
 10
458.1918006329402
 20
-183.4669585513707
 30
0.0
  0
VERTEX
  5
163
330
15F
100
AcDbEntity
  8
Calque 1
 62
   179
420
  1842203
370
    35
100
AcDbVertex
100
AcDb2dVertex
 10
449.5315138889761
 20
-188.4671734372763
 30
0.0
  0
VERTEX
  5
164
330
15F
100
AcDbEntity
  8
Calque 1
 62
   179
420
  1842203
370
    35
100
AcDbVertex
100
AcDb2dVertex
 10
448.0315183251596
 20
-185.8688807082216
 30
0.0
  0
SEQEND
  5
165
330
15F
100
AcDbEntity
  8
Calque 1
370
    35
  0
POLYLINE
  5
166
330
1F
100
AcDbEntity
  8
Calque 1
 62
   179
420
  1842203
370
    35
100
AcDb2dPolyline
 66
     1
 10
0.0
 20
0.0
 30
0.0
  0
VERTEX
  5
167
330
166
100
AcDbEntity
  8
Calque 1
 62
   179
420
  1842203
370
    35
100
AcDbVertex
100
AcDb2dVertex
 10
461.019881382451
 20
-173.3686880032334
 30
0.0
  0
VERTEX
  5
168
330
166
100
AcDbEntity
  8
Calque 1
 62
   179
420
  1842203
370
    35
100
AcDbVertex
100
AcDb2dVertex
 10
461.0195368726752
 20
-163.3682582314223
 30
0.0
  0
VERTEX
  5
169
330
166
100
AcDbEntity
  8
Calque 1
 62
   179
420
  1842203
370
    35
100
AcDbVertex
100
AcDb2dVertex
 10
464.0202170198598
 20
-163.3682582314223
 30
0.0
  0
VERTEX
  5
16A
330
166
100
AcDbEntity
  8
Calque 1
 62
   179
420
  1842203
370
    35
100
AcDbVertex
100
AcDb2dVertex
 10
464.0205615296356
 20
-173.3686880032334
 30
0.0
  0
VERTEX
  5
16B
330
166
100
AcDbEntity
  8
Calque 1
 62
   179
420
  1842203
370
    35
100
AcDbVertex
100
AcDb2dVertex
 10
461.019881382451
 20
-173.3686880032334
 30
0.0
  0
SEQEND
  5
16C
330
166
100
AcDbEntity
  8
Calque 1
370
    35
  0
POLYLINE
  5
16D
330
1F
100
AcDbEntity
  8
Calque 1
 62
   179
420
  1842203
370
    35
100
AcDb2dPolyline
 66
     1
 10
0.0
 20
0.0
 30
0.0
  0
VERTEX
  5
16E
330
16D
100
AcDbEntity
  8
Calque 1
 62
   179
420
  1842203
370
    35
100
AcDbVertex
100
AcDb2dVertex
 10
456.6883599713657
 20
-155.8696584514428
 30
0.0
  0
VERTEX
  5
16F
330
16D
100
AcDbEntity
  8
Calque 1
 62
   179
420
  1842203
370
    35
100
AcDbVertex
100
AcDb2dVertex
 10
448.0280732274016
 20
-150.8694435655372
 30
0.0
  0
VERTEX
  5
170
330
16D
100
AcDbEntity
  8
Calque 1
 62
   179
420
  1842203
370
    35
100
AcDbVertex
100
AcDb2dVertex
 10
449.5287578107698
 20
-148.2711508364825
 30
0.0
  0
VERTEX
  5
171
330
16D
100
AcDbEntity
  8
Calque 1
 62
   179
420
  1842203
370
    35
100
AcDbVertex
100
AcDb2dVertex
 10
458.1890445547339
 20
-153.2706767028365
 30
0.0
  0
VERTEX
  5
172
330
16D
100
AcDbEntity
  8
Calque 1
 62
   179
420
  1842203
370
    35
100
AcDbVertex
100
AcDb2dVertex
 10
456.6883599713657
 20
-155.8696584514428
 30
0.0
  0
SEQEND
  5
173
330
16D
100
AcDbEntity
  8
Calque 1
370
    35
  0
POLYLINE
  5
174
330
1F
100
AcDbEntity
  8
Calque 1
 62
   179
420
  1842203
370
    35
100
AcDb2dPolyline
 66
     1
 10
0.0
 20
0.0
 30
0.0
  0
VERTEX
  5
175
330
174
100
AcDbEntity
  8
Calque 1
 62
   179
420
  1842203
370
    35
100
AcDbVertex
100
AcDb2dVertex
 10
439.3684755029892
 20
-150.8708216046404
 30
0.0
  0
VERTEX
  5
176
330
174
100
AcDbEntity
  8
Calque 1
 62
   179
420
  1842203
370
    35
100
AcDbVertex
100
AcDb2dVertex
 10
430.7081887590251
 20
-155.871036490546
 30
0.0
  0
VERTEX
  5
177
330
174
100
AcDbEntity
  8
Calque 1
 62
   179
420
  1842203
370
    35
100
AcDbVertex
100
AcDb2dVertex
 10
429.2078486854327
 20
-153.2727437614913
 30
0.0
  0
VERTEX
  5
178
330
174
100
AcDbEntity
  8
Calque 1
 62
   179
420
  1842203
370
    35
100
AcDbVertex
100
AcDb2dVertex
 10
437.8681354293968
 20
-148.2725288755857
 30
0.0
  0
VERTEX
  5
179
330
174
100
AcDbEntity
  8
Calque 1
 62
   179
420
  1842203
370
    35
100
AcDbVertex
100
AcDb2dVertex
 10
439.3684755029892
 20
-150.8708216046404
 30
0.0
  0
SEQEND
  5
17A
330
174
100
AcDbEntity
  8
Calque 1
370
    35
  0
POLYLINE
  5
17B
330
1F
100
AcDbEntity
  8
Calque 1
 62
   179
420
  1842203
370
    35
100
AcDb2dPolyline
 66
     1
 10
0.0
 20
0.0
 30
0.0
  0
VERTEX
  5
17C
330
17B
100
AcDbEntity
  8
Calque 1
 62
   179
420
  1842203
370
    35
100
AcDbVertex
100
AcDb2dVertex
 10
426.3801124456978
 20
-216.4534250740781
 30
0.0
  0
VERTEX
  5
17D
330
17B
100
AcDbEntity
  8
Calque 1
 62
   179
420
  1842203
370
    35
100
AcDbVertex
100
AcDb2dVertex
 10
426.3801124456978
 20
-226.4535103361135
 30
0.0
  0
VERTEX
  5
17E
330
17B
100
AcDbEntity
  8
Calque 1
 62
   179
420
  1842203
370
    35
100
AcDbVertex
100
AcDb2dVertex
 10
423.379776808289
 20
-226.4535103361135
 30
0.0
  0
VERTEX
  5
17F
330
17B
100
AcDbEntity
  8
Calque 1
 62
   179
420
  1842203
370
    35
100
AcDbVertex
100
AcDb2dVertex
 10
423.379776808289
 20
-216.4534250740781
 30
0.0
  0
VERTEX
  5
180
330
17B
100
AcDbEntity
  8
Calque 1
 62
   179
420
  1842203
370
    35
100
AcDbVertex
100
AcDb2dVertex
 10
426.3801124456978
 20
-216.4534250740781
 30
0.0
  0
SEQEND
  5
181
330
17B
100
AcDbEntity
  8
Calque 1
370
    35
  0
POLYLINE
  5
182
330
1F
100
AcDbEntity
  8
Calque 1
 62
   179
420
  1842203
370
    35
100
AcDb2dPolyline
 66
     1
 10
0.0
 20
0.0
 30
0.0
  0
VERTEX
  5
183
330
182
100
AcDbEntity
  8
Calque 1
 62
   179
420
  1842203
370
    35
100
AcDbVertex
100
AcDb2dVertex
 10
430.711633856783
 20
-233.9521101160929
 30
0.0
  0
VERTEX
  5
184
330
182
100
AcDbEntity
  8
Calque 1
 62
   179
420
  1842203
370
    35
100
AcDbVertex
100
AcDb2dVertex
 10
439.3715760909713
 20
-238.9523250019985
 30
0.0
  0
VERTEX
  5
185
330
182
100
AcDbEntity
  8
Calque 1
 62
   179
420
  1842203
370
    35
100
AcDbVertex
100
AcDb2dVertex
 10
437.8715805271548
 20
-241.5506177310532
 30
0.0
  0
VERTEX
  5
186
330
182
100
AcDbEntity
  8
Calque 1
 62
   179
420
  1842203
370
    35
100
AcDbVertex
100
AcDb2dVertex
 10
429.2112937831907
 20
-236.5510918646992
 30
0.0
  0
VERTEX
  5
187
330
182
100
AcDbEntity
  8
Calque 1
 62
   179
420
  1842203
370
    35
100
AcDbVertex
100
AcDb2dVertex
 10
430.711633856783
 20
-233.9521101160929
 30
0.0
  0
SEQEND
  5
188
330
182
100
AcDbEntity
  8
Calque 1
370
    35
  0
POLYLINE
  5
189
330
1F
100
AcDbEntity
  8
Calque 1
 62
   179
420
  1842203
370
    35
100
AcDb2dPolyline
 66
     1
 10
0.0
 20
0.0
 30
0.0
  0
VERTEX
  5
18A
330
189
100
AcDbEntity
  8
Calque 1
 62
   179
420
  1842203
370
    35
100
AcDbVertex
100
AcDb2dVertex
 10
448.0315183251596
 20
-238.9509469628953
 30
0.0
  0
VERTEX
  5
18B
330
189
100
AcDbEntity
  8
Calque 1
 62
   179
420
  1842203
370
    35
100
AcDbVertex
100
AcDb2dVertex
 10
456.6914605593479
 20
-233.9507320769897
 30
0.0
  0
VERTEX
  5
18C
330
189
100
AcDbEntity
  8
Calque 1
 62
   179
420
  1842203
370
    35
100
AcDbVertex
100
AcDb2dVertex
 10
458.1918006329402
 20
-236.5490248060444
 30
0.0
  0
VERTEX
  5
18D
330
189
100
AcDbEntity
  8
Calque 1
 62
   179
420
  1842203
370
    35
100
AcDbVertex
100
AcDb2dVertex
 10
449.5315138889761
 20
-241.54923969195
 30
0.0
  0
VERTEX
  5
18E
330
189
100
AcDbEntity
  8
Calque 1
 62
   179
420
  1842203
370
    35
100
AcDbVertex
100
AcDb2dVertex
 10
448.0315183251596
 20
-238.9509469628953
 30
0.0
  0
SEQEND
  5
18F
330
189
100
AcDbEntity
  8
Calque 1
370
    35
  0
POLYLINE
  5
190
330
1F
100
AcDbEntity
  8
Calque 1
 62
   179
420
  1842203
370
    35
100
AcDb2dPolyline
 66
     1
 10
0.0
 20
0.0
 30
0.0
  0
VERTEX
  5
191
330
190
100
AcDbEntity
  8
Calque 1
 62
   179
420
  1842203
370
    35
100
AcDbVertex
100
AcDb2dVertex
 10
461.019881382451
 20
-226.4507542579071
 30
0.0
  0
VERTEX
  5
192
330
190
100
AcDbEntity
  8
Calque 1
 62
   179
420
  1842203
370
    35
100
AcDbVertex
100
AcDb2dVertex
 10
461.0195368726752
 20
-216.4499799763202
 30
0.0
  0
VERTEX
  5
193
330
190
100
AcDbEntity
  8
Calque 1
 62
   179
420
  1842203
370
    35
100
AcDbVertex
100
AcDb2dVertex
 10
464.0202170198598
 20
-216.4499799763202
 30
0.0
  0
VERTEX
  5
194
330
190
100
AcDbEntity
  8
Calque 1
 62
   179
420
  1842203
370
    35
100
AcDbVertex
100
AcDb2dVertex
 10
464.0205615296356
 20
-226.4507542579071
 30
0.0
  0
VERTEX
  5
195
330
190
100
AcDbEntity
  8
Calque 1
 62
   179
420
  1842203
370
    35
100
AcDbVertex
100
AcDb2dVertex
 10
461.019881382451
 20
-226.4507542579071
 30
0.0
  0
SEQEND
  5
196
330
190
100
AcDbEntity
  8
Calque 1
370
    35
  0
POLYLINE
  5
197
330
1F
100
AcDbEntity
  8
Calque 1
 62
   179
420
  1842203
370
    35
100
AcDb2dPolyline
 66
     1
 10
0.0
 20
0.0
 30
0.0
  0
VERTEX
  5
198
330
197
100
AcDbEntity
  8
Calque 1
 62
   179
420
  1842203
370
    35
100
AcDbVertex
100
AcDb2dVertex
 10
456.6883599713657
 20
-208.9513801963408
 30
0.0
  0
VERTEX
  5
199
330
197
100
AcDbEntity
  8
Calque 1
 62
   179
420
  1842203
370
    35
100
AcDbVertex
100
AcDb2dVertex
 10
448.0280732274016
 20
-203.9511653104351
 30
0.0
  0
VERTEX
  5
19A
330
197
100
AcDbEntity
  8
Calque 1
 62
   179
420
  1842203
370
    35
100
AcDbVertex
100
AcDb2dVertex
 10
449.5287578107698
 20
-201.3528725813804
 30
0.0
  0
VERTEX
  5
19B
330
197
100
AcDbEntity
  8
Calque 1
 62
   179
420
  1842203
370
    35
100
AcDbVertex
100
AcDb2dVertex
 10
458.1890445547339
 20
-206.3523984477344
 30
0.0
  0
VERTEX
  5
19C
330
197
100
AcDbEntity
  8
Calque 1
 62
   179
420
  1842203
370
    35
100
AcDbVertex
100
AcDb2dVertex
 10
456.6883599713657
 20
-208.9513801963408
 30
0.0
  0
SEQEND
  5
19D
330
197
100
AcDbEntity
  8
Calque 1
370
    35
  0
POLYLINE
  5
19E
330
1F
100
AcDbEntity
  8
Calque 1
 62
   179
420
  1842203
370
    35
100
AcDb2dPolyline
 66
     1
 10
0.0
 20
0.0
 30
0.0
  0
VERTEX
  5
19F
330
19E
100
AcDbEntity
  8
Calque 1
 62
   179
420
  1842203
370
    35
100
AcDbVertex
100
AcDb2dVertex
 10
439.3684755029892
 20
-203.9525433495383
 30
0.0
  0
VERTEX
  5
1A0
330
19E
100
AcDbEntity
  8
Calque 1
 62
   179
420
  1842203
370
    35
100
AcDbVertex
100
AcDb2dVertex
 10
430.7081887590251
 20
-208.9527582354439
 30
0.0
  0
VERTEX
  5
1A1
330
19E
100
AcDbEntity
  8
Calque 1
 62
   179
420
  1842203
370
    35
100
AcDbVertex
100
AcDb2dVertex
 10
429.2078486854327
 20
-206.3544655063892
 30
0.0
  0
VERTEX
  5
1A2
330
19E
100
AcDbEntity
  8
Calque 1
 62
   179
420
  1842203
370
    35
100
AcDbVertex
100
AcDb2dVertex
 10
437.8681354293968
 20
-201.3542506204836
 30
0.0
  0
VERTEX
  5
1A3
330
19E
100
AcDbEntity
  8
Calque 1
 62
   179
420
  1842203
370
    35
100
AcDbVertex
100
AcDb2dVertex
 10
439.3684755029892
 20
-203.9525433495383
 30
0.0
  0
SEQEND
  5
1A4
330
19E
100
AcDbEntity
  8
Calque 1
370
    35
  0
POLYLINE
  5
1A5
330
1F
100
AcDbEntity
  8
Calque 1
 62
   179
420
  1842203
370
    35
100
AcDb2dPolyline
 66
     1
 10
0.0
 20
0.0
 30
0.0
  0
VERTEX
  5
1A6
330
1A5
100
AcDbEntity
  8
Calque 1
 62
   179
420
  1842203
370
    35
100
AcDbVertex
100
AcDb2dVertex
 10
443.7030975020566
 20
-37.72537074367157
 30
0.0
  0
VERTEX
  5
1A7
330
1A5
100
AcDbEntity
  8
Calque 1
 62
   179
420
  1842203
370
    35
100
AcDbVertex
100
AcDb2dVertex
 10
465.6886778640406
 20
-50.41917794265721
 30
0.0
  0
VERTEX
  5
1A8
330
1A5
100
AcDbEntity
  8
Calque 1
 62
   179
420
  1842203
370
    35
100
AcDbVertex
100
AcDb2dVertex
 10
465.6886778640406
 20
-75.8054143015253
 30
0.0
  0
VERTEX
  5
1A9
330
1A5
100
AcDbEntity
  8
Calque 1
 62
   179
420
  1842203
370
    35
100
AcDbVertex
100
AcDb2dVertex
 10
443.7030975020566
 20
-88.49853248095934
 30
0.0
  0
VERTEX
  5
1AA
330
1A5
100
AcDbEntity
  8
Calque 1
 62
   179
420
  1842203
370
    35
100
AcDbVertex
100
AcDb2dVertex
 10
421.7188951791757
 20
-75.8047252819737
 30
0.0
  0
VERTEX
  5
1AB
330
1A5
100
AcDbEntity
  8
Calque 1
 62
   179
420
  1842203
370
    35
100
AcDbVertex
100
AcDb2dVertex
 10
421.7188951791757
 20
-50.41917794265721
 30
0.0
  0
VERTEX
  5
1AC
330
1A5
100
AcDbEntity
  8
Calque 1
 62
   179
420
  1842203
370
    35
100
AcDbVertex
100
AcDb2dVertex
 10
443.7030975020566
 20
-37.72537074367157
 30
0.0
  0
SEQEND
  5
1AD
330
1A5
100
AcDbEntity
  8
Calque 1
370
    35
  0
POLYLINE
  5
1AE
330
1F
100
AcDbEntity
  8
Calque 1
 62
   179
420
  1842203
370
    35
100
AcDb2dPolyline
 66
     1
 10
0.0
 20
0.0
 30
0.0
  0
VERTEX
  5
1AF
330
1AE
100
AcDbEntity
  8
Calque 1
 62
   179
420
  1842203
370
    35
100
AcDbVertex
100
AcDb2dVertex
 10
428.0661432884443
 20
-54.08579548645584
 30
0.0
  0
VERTEX
  5
1B0
330
1AE
100
AcDbEntity
  8
Calque 1
 62
   179
420
  1842203
370
    35
100
AcDbVertex
100
AcDb2dVertex
 10
443.7020639727291
 20
-45.05929485082041
 30
0.0
  0
VERTEX
  5
1B1
330
1AE
100
AcDbEntity
  8
Calque 1
 62
   179
420
  1842203
370
    35
100
AcDbVertex
100
AcDb2dVertex
 10
459.3376401472383
 20
-54.08579548645584
 30
0.0
  0
VERTEX
  5
1B2
330
1AE
100
AcDbEntity
  8
Calque 1
 62
   179
420
  1842203
370
    35
100
AcDbVertex
100
AcDb2dVertex
 10
459.3376401472383
 20
-72.13983028705407
 30
0.0
  0
VERTEX
  5
1B3
330
1AE
100
AcDbEntity
  8
Calque 1
 62
   179
420
  1842203
370
    35
100
AcDbVertex
100
AcDb2dVertex
 10
443.7024084825049
 20
-81.16598641291368
 30
0.0
  0
VERTEX
  5
1B4
330
1AE
100
AcDbEntity
  8
Calque 1
 62
   179
420
  1842203
370
    35
100
AcDbVertex
100
AcDb2dVertex
 10
428.0668323079959
 20
-72.13983028705407
 30
0.0
  0
VERTEX
  5
1B5
330
1AE
100
AcDbEntity
  8
Calque 1
 62
   179
420
  1842203
370
    35
100
AcDbVertex
100
AcDb2dVertex
 10
428.0661432884443
 20
-54.08579548645584
 30
0.0
  0
SEQEND
  5
1B6
330
1AE
100
AcDbEntity
  8
Calque 1
370
    35
  0
POLYLINE
  5
1B7
330
1F
100
AcDbEntity
  8
Calque 1
 62
   179
420
  1842203
370
    35
100
AcDb2dPolyline
 66
     1
 10
0.0
 20
0.0
 30
0.0
  0
VERTEX
  5
1B8
330
1B7
100
AcDbEntity
  8
Calque 1
 62
   179
420
  1842203
370
    35
100
AcDbVertex
100
AcDb2dVertex
 10
456.6921495788995
 20
-50.61313694643045
 30
0.0
  0
VERTEX
  5
1B9
330
1B7
100
AcDbEntity
  8
Calque 1
 62
   179
420
  1842203
370
    35
100
AcDbVertex
100
AcDb2dVertex
 10
448.0322073447112
 20
-45.61292206052486
 30
0.0
  0
VERTEX
  5
1BA
330
1B7
100
AcDbEntity
  8
Calque 1
 62
   179
420
  1842203
370
    35
100
AcDbVertex
100
AcDb2dVertex
 10
449.5322029085277
 20
-43.01462933147015
 30
0.0
  0
VERTEX
  5
1BB
330
1B7
100
AcDbEntity
  8
Calque 1
 62
   179
420
  1842203
370
    35
100
AcDbVertex
100
AcDb2dVertex
 10
458.1924896524918
 20
-48.01415519782415
 30
0.0
  0
VERTEX
  5
1BC
330
1B7
100
AcDbEntity
  8
Calque 1
 62
   179
420
  1842203
370
    35
100
AcDbVertex
100
AcDb2dVertex
 10
456.6921495788995
 20
-50.61313694643045
 30
0.0
  0
SEQEND
  5
1BD
330
1B7
100
AcDbEntity
  8
Calque 1
370
    35
  0
POLYLINE
  5
1BE
330
1F
100
AcDbEntity
  8
Calque 1
 62
   179
420
  1842203
370
    35
100
AcDb2dPolyline
 66
     1
 10
0.0
 20
0.0
 30
0.0
  0
VERTEX
  5
1BF
330
1BE
100
AcDbEntity
  8
Calque 1
 62
   179
420
  1842203
370
    35
100
AcDbVertex
100
AcDb2dVertex
 10
439.3722651105229
 20
-45.61430009962804
 30
0.0
  0
VERTEX
  5
1C0
330
1BE
100
AcDbEntity
  8
Calque 1
 62
   179
420
  1842203
370
    35
100
AcDbVertex
100
AcDb2dVertex
 10
430.7123228763346
 20
-50.61451498553364
 30
0.0
  0
VERTEX
  5
1C1
330
1BE
100
AcDbEntity
  8
Calque 1
 62
   179
420
  1842203
370
    35
100
AcDbVertex
100
AcDb2dVertex
 10
429.2119828027423
 20
-48.01622225647893
 30
0.0
  0
VERTEX
  5
1C2
330
1BE
100
AcDbEntity
  8
Calque 1
 62
   179
420
  1842203
370
    35
100
AcDbVertex
100
AcDb2dVertex
 10
437.8722695467064
 20
-43.01600737057333
 30
0.0
  0
VERTEX
  5
1C3
330
1BE
100
AcDbEntity
  8
Calque 1
 62
   179
420
  1842203
370
    35
100
AcDbVertex
100
AcDb2dVertex
 10
439.3722651105229
 20
-45.61430009962804
 30
0.0
  0
SEQEND
  5
1C4
330
1BE
100
AcDbEntity
  8
Calque 1
370
    35
  0
POLYLINE
  5
1C5
330
1F
100
AcDbEntity
  8
Calque 1
 62
   179
420
  1842203
370
    35
100
AcDb2dPolyline
 66
     1
 10
0.0
 20
0.0
 30
0.0
  0
VERTEX
  5
1C6
330
1C5
100
AcDbEntity
  8
Calque 1
 62
   179
420
  1842203
370
    35
100
AcDbVertex
100
AcDb2dVertex
 10
426.3839020532316
 20
-58.11449280461623
 30
0.0
  0
VERTEX
  5
1C7
330
1C5
100
AcDbEntity
  8
Calque 1
 62
   179
420
  1842203
370
    35
100
AcDbVertex
100
AcDb2dVertex
 10
426.3842465630074
 20
-68.11492257642742
 30
0.0
  0
VERTEX
  5
1C8
330
1C5
100
AcDbEntity
  8
Calque 1
 62
   179
420
  1842203
370
    35
100
AcDbVertex
100
AcDb2dVertex
 10
423.3835664158227
 20
-68.11492257642742
 30
0.0
  0
VERTEX
  5
1C9
330
1C5
100
AcDbEntity
  8
Calque 1
 62
   179
420
  1842203
370
    35
100
AcDbVertex
100
AcDb2dVertex
 10
423.3832219060469
 20
-58.11449280461623
 30
0.0
  0
VERTEX
  5
1CA
330
1C5
100
AcDbEntity
  8
Calque 1
 62
   179
420
  1842203
370
    35
100
AcDbVertex
100
AcDb2dVertex
 10
426.3839020532316
 20
-58.11449280461623
 30
0.0
  0
SEQEND
  5
1CB
330
1C5
100
AcDbEntity
  8
Calque 1
370
    35
  0
POLYLINE
  5
1CC
330
1F
100
AcDbEntity
  8
Calque 1
 62
   179
420
  1842203
370
    35
100
AcDb2dPolyline
 66
     1
 10
0.0
 20
0.0
 30
0.0
  0
VERTEX
  5
1CD
330
1CC
100
AcDbEntity
  8
Calque 1
 62
   179
420
  1842203
370
    35
100
AcDbVertex
100
AcDb2dVertex
 10
430.7154234643168
 20
-75.61317784663103
 30
0.0
  0
VERTEX
  5
1CE
330
1CC
100
AcDbEntity
  8
Calque 1
 62
   179
420
  1842203
370
    35
100
AcDbVertex
100
AcDb2dVertex
 10
439.3757102082809
 20
-80.61339273253662
 30
0.0
  0
VERTEX
  5
1CF
330
1CC
100
AcDbEntity
  8
Calque 1
 62
   179
420
  1842203
370
    35
100
AcDbVertex
100
AcDb2dVertex
 10
437.8750256249128
 20
-83.21168546159133
 30
0.0
  0
VERTEX
  5
1D0
330
1CC
100
AcDbEntity
  8
Calque 1
 62
   179
420
  1842203
370
    35
100
AcDbVertex
100
AcDb2dVertex
 10
429.2147388809487
 20
-78.21215959523734
 30
0.0
  0
VERTEX
  5
1D1
330
1CC
100
AcDbEntity
  8
Calque 1
 62
   179
420
  1842203
370
    35
100
AcDbVertex
100
AcDb2dVertex
 10
430.7154234643168
 20
-75.61317784663103
 30
0.0
  0
SEQEND
  5
1D2
330
1CC
100
AcDbEntity
  8
Calque 1
370
    35
  0
POLYLINE
  5
1D3
330
1F
100
AcDbEntity
  8
Calque 1
 62
   179
420
  1842203
370
    35
100
AcDb2dPolyline
 66
     1
 10
0.0
 20
0.0
 30
0.0
  0
VERTEX
  5
1D4
330
1D3
100
AcDbEntity
  8
Calque 1
 62
   179
420
  1842203
370
    35
100
AcDbVertex
100
AcDb2dVertex
 10
448.0353079326934
 20
-80.61201469343345
 30
0.0
  0
VERTEX
  5
1D5
330
1D3
100
AcDbEntity
  8
Calque 1
 62
   179
420
  1842203
370
    35
100
AcDbVertex
100
AcDb2dVertex
 10
456.6955946766575
 20
-75.61179980752785
 30
0.0
  0
VERTEX
  5
1D6
330
1D3
100
AcDbEntity
  8
Calque 1
 62
   179
420
  1842203
370
    35
100
AcDbVertex
100
AcDb2dVertex
 10
458.1959347502498
 20
-78.21009253658255
 30
0.0
  0
VERTEX
  5
1D7
330
1D3
100
AcDbEntity
  8
Calque 1
 62
   179
420
  1842203
370
    35
100
AcDbVertex
100
AcDb2dVertex
 10
449.5356480062857
 20
-83.21030742248816
 30
0.0
  0
VERTEX
  5
1D8
330
1D3
100
AcDbEntity
  8
Calque 1
 62
   179
420
  1842203
370
    35
100
AcDbVertex
100
AcDb2dVertex
 10
448.0353079326934
 20
-80.61201469343345
 30
0.0
  0
SEQEND
  5
1D9
330
1D3
100
AcDbEntity
  8
Calque 1
370
    35
  0
SPLINE
  5
1DA
330
1F
100
AcDbEntity
  8
Calque 1
 62
   179
420
  1842203
370
    35
100
AcDbSpline
210
0.0
220
0.0
230
1.0
 70
    11
 71
     3
 72
    17
 73
    13
 74
     0
 42
0.0000000001
 43
0.0000000001
 40
0.0
 40
0.0
 40
0.0
 40
0.0
 40
1.0
 40
1.0
 40
1.0
 40
2.0
 40
2.0
 40
2.0
 40
3.0
 40
3.0
 40
3.0
 40
4.0
 40
4.0
 40
4.0
 40
4.0
 10
443.6999969140744
 20
-213.9571072386591
 30
0.0
 10
447.8420379484717
 20
-213.9571072386591
 30
0.0
 10
451.199974733157
 20
-217.3146995135685
 30
0.0
 10
451.199974733157
 20
-221.4574295675175
 30
0.0
 10
451.199974733157
 20
-225.599126092139
 30
0.0
 10
447.8420379484717
 20
-228.9574073866001
 30
0.0
 10
443.6999969140744
 20
-228.9574073866001
 30
0.0
 10
439.5579558796771
 20
-228.9574073866001
 30
0.0
 10
436.2000190949918
 20
-225.599126092139
 30
0.0
 10
436.2000190949918
 20
-221.4574295675175
 30
0.0
 10
436.2000190949918
 20
-217.3146995135685
 30
0.0
 10
439.5579558796771
 20
-213.9571072386591
 30
0.0
 10
443.6999969140744
 20
-213.9571072386591
 30
0.0
  0
POLYLINE
  5
1DB
330
1F
100
AcDbEntity
  8
Calque 1
 62
   179
420
  1842203
370
    35
100
AcDb2dPolyline
 66
     1
 10
0.0
 20
0.0
 30
0.0
  0
VERTEX
  5
1DC
330
1DB
100
AcDbEntity
  8
Calque 1
 62
   179
420
  1842203
370
    35
100
AcDbVertex
100
AcDb2dVertex
 10
461.0236709899847
 20
-68.11147747866946
 30
0.0
  0
VERTEX
  5
1DD
330
1DB
100
AcDbEntity
  8
Calque 1
 62
   179
420
  1842203
370
    35
100
AcDbVertex
100
AcDb2dVertex
 10
461.0236709899847
 20
-58.11173672640987
 30
0.0
  0
VERTEX
  5
1DE
330
1DB
100
AcDbEntity
  8
Calque 1
 62
   179
420
  1842203
370
    35
100
AcDbVertex
100
AcDb2dVertex
 10
464.0240066273936
 20
-58.11173672640987
 30
0.0
  0
VERTEX
  5
1DF
330
1DB
100
AcDbEntity
  8
Calque 1
 62
   179
420
  1842203
370
    35
100
AcDbVertex
100
AcDb2dVertex
 10
464.0240066273936
 20
-68.11147747866946
 30
0.0
  0
VERTEX
  5
1E0
330
1DB
100
AcDbEntity
  8
Calque 1
 62
   179
420
  1842203
370
    35
100
AcDbVertex
100
AcDb2dVertex
 10
461.0236709899847
 20
-68.11147747866946
 30
0.0
  0
SEQEND
  5
1E1
330
1DB
100
AcDbEntity
  8
Calque 1
370
    35
  0
POLYLINE
  5
1E2
330
1F
100
AcDbEntity
  8
Calque 1
 62
   179
420
  1842203
370
    35
100
AcDb2dPolyline
 66
     1
 10
0.0
 20
0.0
 30
0.0
  0
VERTEX
  5
1E3
330
1E2
100
AcDbEntity
  8
Calque 1
 62
   179
420
  1842203
370
    35
100
AcDbVertex
100
AcDb2dVertex
 10
314.1922265065544
 20
-161.1065515533204
 30
0.0
  0
VERTEX
  5
1E4
330
1E2
100
AcDbEntity
  8
Calque 1
 62
   179
420
  1842203
370
    35
100
AcDbVertex
100
AcDb2dVertex
 10
314.1922265065544
 20
-41.10621742844727
 30
0.0
  0
VERTEX
  5
1E5
330
1E2
100
AcDbEntity
  8
Calque 1
 62
   179
420
  1842203
370
    35
100
AcDbVertex
100
AcDb2dVertex
 10
309.1920116206488
 20
-41.10621742844727
 30
0.0
  0
VERTEX
  5
1E6
330
1E2
100
AcDbEntity
  8
Calque 1
 62
   179
420
  1842203
370
    35
100
AcDbVertex
100
AcDb2dVertex
 10
309.1920116206488
 20
-37.60634261613399
 30
0.0
  0
VERTEX
  5
1E7
330
1E2
100
AcDbEntity
  8
Calque 1
 62
   179
420
  1842203
370
    35
100
AcDbVertex
100
AcDb2dVertex
 10
299.1922708683892
 20
-37.60634261613399
 30
0.0
  0
VERTEX
  5
1E8
330
1E2
100
AcDbEntity
  8
Calque 1
 62
   179
420
  1842203
370
    35
100
AcDbVertex
100
AcDb2dVertex
 10
299.1922708683892
 20
-41.10621742844727
 30
0.0
  0
VERTEX
  5
1E9
330
1E2
100
AcDbEntity
  8
Calque 1
 62
   179
420
  1842203
370
    35
100
AcDbVertex
100
AcDb2dVertex
 10
294.1920559824836
 20
-41.10621742844727
 30
0.0
  0
VERTEX
  5
1EA
330
1E2
100
AcDbEntity
  8
Calque 1
 62
   179
420
  1842203
370
    35
100
AcDbVertex
100
AcDb2dVertex
 10
294.1920559824836
 20
-161.1065515533204
 30
0.0
  0
VERTEX
  5
1EB
330
1E2
100
AcDbEntity
  8
Calque 1
 62
   179
420
  1842203
370
    35
100
AcDbVertex
100
AcDb2dVertex
 10
299.1922708683892
 20
-161.1065515533204
 30
0.0
  0
VERTEX
  5
1EC
330
1E2
100
AcDbEntity
  8
Calque 1
 62
   179
420
  1842203
370
    35
100
AcDbVertex
100
AcDb2dVertex
 10
299.1922708683892
 20
-164.1068871907292
 30
0.0
  0
VERTEX
  5
1ED
330
1E2
100
AcDbEntity
  8
Calque 1
 62
   179
420
  1842203
370
    35
100
AcDbVertex
100
AcDb2dVertex
 10
309.1920116206488
 20
-164.1068871907292
 30
0.0
  0
VERTEX
  5
1EE
330
1E2
100
AcDbEntity
  8
Calque 1
 62
   179
420
  1842203
370
    35
100
AcDbVertex
100
AcDb2dVertex
 10
309.1920116206488
 20
-161.1065515533204
 30
0.0
  0
VERTEX
  5
1EF
330
1E2
100
AcDbEntity
  8
Calque 1
 62
   179
420
  1842203
370
    35
100
AcDbVertex
100
AcDb2dVertex
 10
314.1922265065544
 20
-161.1065515533204
 30
0.0
  0
SEQEND
  5
1F0
330
1E2
100
AcDbEntity
  8
Calque 1
370
    35
  0
POLYLINE
  5
1F1
330
1F
100
AcDbEntity
  8
Calque 1
 62
   179
420
  1842203
370
    35
100
AcDb2dPolyline
 66
     1
 10
0.0
 20
0.0
 30
0.0
  0
VERTEX
  5
1F2
330
1F1
100
AcDbEntity
  8
Calque 1
 62
   179
420
  1842203
370
    35
100
AcDbVertex
100
AcDb2dVertex
 10
334.1923970306252
 20
-161.1065515533204
 30
0.0
  0
VERTEX
  5
1F3
330
1F1
100
AcDbEntity
  8
Calque 1
 62
   179
420
  1842203
370
    35
100
AcDbVertex
100
AcDb2dVertex
 10
334.1923970306252
 20
-41.10621742844727
 30
0.0
  0
VERTEX
  5
1F4
330
1F1
100
AcDbEntity
  8
Calque 1
 62
   179
420
  1842203
370
    35
100
AcDbVertex
100
AcDb2dVertex
 10
329.1921821447196
 20
-41.10621742844727
 30
0.0
  0
VERTEX
  5
1F5
330
1F1
100
AcDbEntity
  8
Calque 1
 62
   179
420
  1842203
370
    35
100
AcDbVertex
100
AcDb2dVertex
 10
329.1921821447196
 20
-37.60634261613399
 30
0.0
  0
VERTEX
  5
1F6
330
1F1
100
AcDbEntity
  8
Calque 1
 62
   179
420
  1842203
370
    35
100
AcDbVertex
100
AcDb2dVertex
 10
319.19244139246
 20
-37.60634261613399
 30
0.0
  0
VERTEX
  5
1F7
330
1F1
100
AcDbEntity
  8
Calque 1
 62
   179
420
  1842203
370
    35
100
AcDbVertex
100
AcDb2dVertex
 10
319.19244139246
 20
-41.10621742844727
 30
0.0
  0
VERTEX
  5
1F8
330
1F1
100
AcDbEntity
  8
Calque 1
 62
   179
420
  1842203
370
    35
100
AcDbVertex
100
AcDb2dVertex
 10
314.1922265065544
 20
-41.10621742844727
 30
0.0
  0
VERTEX
  5
1F9
330
1F1
100
AcDbEntity
  8
Calque 1
 62
   179
420
  1842203
370
    35
100
AcDbVertex
100
AcDb2dVertex
 10
314.1922265065544
 20
-161.1065515533204
 30
0.0
  0
VERTEX
  5
1FA
330
1F1
100
AcDbEntity
  8
Calque 1
 62
   179
420
  1842203
370
    35
100
AcDbVertex
100
AcDb2dVertex
 10
319.19244139246
 20
-161.1065515533204
 30
0.0
  0
VERTEX
  5
1FB
330
1F1
100
AcDbEntity
  8
Calque 1
 62
   179
420
  1842203
370
    35
100
AcDbVertex
100
AcDb2dVertex
 10
319.19244139246
 20
-164.1068871907292
 30
0.0
  0
VERTEX
  5
1FC
330
1F1
100
AcDbEntity
  8
Calque 1
 62
   179
420
  1842203
370
    35
100
AcDbVertex
100
AcDb2dVertex
 10
329.1921821447196
 20
-164.1068871907292
 30
0.0
  0
VERTEX
  5
1FD
330
1F1
100
AcDbEntity
  8
Calque 1
 62
   179
420
  1842203
370
    35
100
AcDbVertex
100
AcDb2dVertex
 10
329.1921821447196
 20
-161.1065515533204
 30
0.0
  0
VERTEX
  5
1FE
330
1F1
100
AcDbEntity
  8
Calque 1
 62
   179
420
  1842203
370
    35
100
AcDbVertex
100
AcDb2dVertex
 10
334.1923970306252
 20
-161.1065515533204
 30
0.0
  0
SEQEND
  5
1FF
330
1F1
100
AcDbEntity
  8
Calque 1
370
    35
  0
POLYLINE
  5
200
330
1F
100
AcDbEntity
  8
Calque 1
 62
   179
420
  1842203
370
    35
100
AcDb2dPolyline
 66
     1
 10
0.0
 20
0.0
 30
0.0
  0
VERTEX
  5
201
330
200
100
AcDbEntity
  8
Calque 1
 62
   179
420
  1842203
370
    35
100
AcDbVertex
100
AcDb2dVertex
 10
354.192567554696
 20
-161.1065515533204
 30
0.0
  0
VERTEX
  5
202
330
200
100
AcDbEntity
  8
Calque 1
 62
   179
420
  1842203
370
    35
100
AcDbVertex
100
AcDb2dVertex
 10
354.192567554696
 20
-41.10621742844727
 30
0.0
  0
VERTEX
  5
203
330
200
100
AcDbEntity
  8
Calque 1
 62
   179
420
  1842203
370
    35
100
AcDbVertex
100
AcDb2dVertex
 10
349.1923526687904
 20
-41.10621742844727
 30
0.0
  0
VERTEX
  5
204
330
200
100
AcDbEntity
  8
Calque 1
 62
   179
420
  1842203
370
    35
100
AcDbVertex
100
AcDb2dVertex
 10
349.1923526687904
 20
-37.60634261613399
 30
0.0
  0
VERTEX
  5
205
330
200
100
AcDbEntity
  8
Calque 1
 62
   179
420
  1842203
370
    35
100
AcDbVertex
100
AcDb2dVertex
 10
339.1926119165308
 20
-37.60634261613399
 30
0.0
  0
VERTEX
  5
206
330
200
100
AcDbEntity
  8
Calque 1
 62
   179
420
  1842203
370
    35
100
AcDbVertex
100
AcDb2dVertex
 10
339.1926119165308
 20
-41.10621742844727
 30
0.0
  0
VERTEX
  5
207
330
200
100
AcDbEntity
  8
Calque 1
 62
   179
420
  1842203
370
    35
100
AcDbVertex
100
AcDb2dVertex
 10
334.1923970306252
 20
-41.10621742844727
 30
0.0
  0
VERTEX
  5
208
330
200
100
AcDbEntity
  8
Calque 1
 62
   179
420
  1842203
370
    35
100
AcDbVertex
100
AcDb2dVertex
 10
334.1923970306252
 20
-161.1065515533204
 30
0.0
  0
VERTEX
  5
209
330
200
100
AcDbEntity
  8
Calque 1
 62
   179
420
  1842203
370
    35
100
AcDbVertex
100
AcDb2dVertex
 10
339.1926119165308
 20
-161.1065515533204
 30
0.0
  0
VERTEX
  5
20A
330
200
100
AcDbEntity
  8
Calque 1
 62
   179
420
  1842203
370
    35
100
AcDbVertex
100
AcDb2dVertex
 10
339.1926119165308
 20
-164.1068871907292
 30
0.0
  0
VERTEX
  5
20B
330
200
100
AcDbEntity
  8
Calque 1
 62
   179
420
  1842203
370
    35
100
AcDbVertex
100
AcDb2dVertex
 10
349.1923526687904
 20
-164.1068871907292
 30
0.0
  0
VERTEX
  5
20C
330
200
100
AcDbEntity
  8
Calque 1
 62
   179
420
  1842203
370
    35
100
AcDbVertex
100
AcDb2dVertex
 10
349.1923526687904
 20
-161.1065515533204
 30
0.0
  0
VERTEX
  5
20D
330
200
100
AcDbEntity
  8
Calque 1
 62
   179
420
  1842203
370
    35
100
AcDbVertex
100
AcDb2dVertex
 10
354.192567554696
 20
-161.1065515533204
 30
0.0
  0
SEQEND
  5
20E
330
200
100
AcDbEntity
  8
Calque 1
370
    35
  0
POLYLINE
  5
20F
330
1F
100
AcDbEntity
  8
Calque 1
 62
   179
420
  1842203
370
    35
100
AcDb2dPolyline
 66
     1
 10
0.0
 20
0.0
 30
0.0
  0
VERTEX
  5
210
330
20F
100
AcDbEntity
  8
Calque 1
 62
   179
420
  1842203
370
    35
100
AcDbVertex
100
AcDb2dVertex
 10
374.1927380787668
 20
-161.1065515533204
 30
0.0
  0
VERTEX
  5
211
330
20F
100
AcDbEntity
  8
Calque 1
 62
   179
420
  1842203
370
    35
100
AcDbVertex
100
AcDb2dVertex
 10
374.1927380787668
 20
-41.10621742844727
 30
0.0
  0
VERTEX
  5
212
330
20F
100
AcDbEntity
  8
Calque 1
 62
   179
420
  1842203
370
    35
100
AcDbVertex
100
AcDb2dVertex
 10
369.1925231928612
 20
-41.10621742844727
 30
0.0
  0
VERTEX
  5
213
330
20F
100
AcDbEntity
  8
Calque 1
 62
   179
420
  1842203
370
    35
100
AcDbVertex
100
AcDb2dVertex
 10
369.1925231928612
 20
-37.60634261613399
 30
0.0
  0
VERTEX
  5
214
330
20F
100
AcDbEntity
  8
Calque 1
 62
   179
420
  1842203
370
    35
100
AcDbVertex
100
AcDb2dVertex
 10
359.1927824406015
 20
-37.60634261613399
 30
0.0
  0
VERTEX
  5
215
330
20F
100
AcDbEntity
  8
Calque 1
 62
   179
420
  1842203
370
    35
100
AcDbVertex
100
AcDb2dVertex
 10
359.1927824406015
 20
-41.10621742844727
 30
0.0
  0
VERTEX
  5
216
330
20F
100
AcDbEntity
  8
Calque 1
 62
   179
420
  1842203
370
    35
100
AcDbVertex
100
AcDb2dVertex
 10
354.192567554696
 20
-41.10621742844727
 30
0.0
  0
VERTEX
  5
217
330
20F
100
AcDbEntity
  8
Calque 1
 62
   179
420
  1842203
370
    35
100
AcDbVertex
100
AcDb2dVertex
 10
354.192567554696
 20
-161.1065515533204
 30
0.0
  0
VERTEX
  5
218
330
20F
100
AcDbEntity
  8
Calque 1
 62
   179
420
  1842203
370
    35
100
AcDbVertex
100
AcDb2dVertex
 10
359.1927824406015
 20
-161.1065515533204
 30
0.0
  0
VERTEX
  5
219
330
20F
100
AcDbEntity
  8
Calque 1
 62
   179
420
  1842203
370
    35
100
AcDbVertex
100
AcDb2dVertex
 10
359.1927824406015
 20
-164.1068871907292
 30
0.0
  0
VERTEX
  5
21A
330
20F
100
AcDbEntity
  8
Calque 1
 62
   179
420
  1842203
370
    35
100
AcDbVertex
100
AcDb2dVertex
 10
369.1925231928612
 20
-164.1068871907292
 30
0.0
  0
VERTEX
  5
21B
330
20F
100
AcDbEntity
  8
Calque 1
 62
   179
420
  1842203
370
    35
100
AcDbVertex
100
AcDb2dVertex
 10
369.1925231928612
 20
-161.1065515533204
 30
0.0
  0
VERTEX
  5
21C
330
20F
100
AcDbEntity
  8
Calque 1
 62
   179
420
  1842203
370
    35
100
AcDbVertex
100
AcDb2dVertex
 10
374.1927380787668
 20
-161.1065515533204
 30
0.0
  0
SEQEND
  5
21D
330
20F
100
AcDbEntity
  8
Calque 1
370
    35
  0
POLYLINE
  5
21E
330
1F
100
AcDbEntity
  8
Calque 1
 62
   179
420
  1842203
370
    35
100
AcDb2dPolyline
 66
     1
 10
0.0
 20
0.0
 30
0.0
  0
VERTEX
  5
21F
330
21E
100
AcDbEntity
  8
Calque 1
 62
   179
420
  1842203
370
    35
100
AcDbVertex
100
AcDb2dVertex
 10
394.1929086028375
 20
-161.1065515533204
 30
0.0
  0
VERTEX
  5
220
330
21E
100
AcDbEntity
  8
Calque 1
 62
   179
420
  1842203
370
    35
100
AcDbVertex
100
AcDb2dVertex
 10
394.1929086028375
 20
-41.10621742844727
 30
0.0
  0
VERTEX
  5
221
330
21E
100
AcDbEntity
  8
Calque 1
 62
   179
420
  1842203
370
    35
100
AcDbVertex
100
AcDb2dVertex
 10
389.192693716932
 20
-41.10621742844727
 30
0.0
  0
VERTEX
  5
222
330
21E
100
AcDbEntity
  8
Calque 1
 62
   179
420
  1842203
370
    35
100
AcDbVertex
100
AcDb2dVertex
 10
389.192693716932
 20
-37.60634261613399
 30
0.0
  0
VERTEX
  5
223
330
21E
100
AcDbEntity
  8
Calque 1
 62
   179
420
  1842203
370
    35
100
AcDbVertex
100
AcDb2dVertex
 10
379.1929529646724
 20
-37.60634261613399
 30
0.0
  0
VERTEX
  5
224
330
21E
100
AcDbEntity
  8
Calque 1
 62
   179
420
  1842203
370
    35
100
AcDbVertex
100
AcDb2dVertex
 10
379.1929529646724
 20
-41.10621742844727
 30
0.0
  0
VERTEX
  5
225
330
21E
100
AcDbEntity
  8
Calque 1
 62
   179
420
  1842203
370
    35
100
AcDbVertex
100
AcDb2dVertex
 10
374.1927380787668
 20
-41.10621742844727
 30
0.0
  0
VERTEX
  5
226
330
21E
100
AcDbEntity
  8
Calque 1
 62
   179
420
  1842203
370
    35
100
AcDbVertex
100
AcDb2dVertex
 10
374.1927380787668
 20
-161.1065515533204
 30
0.0
  0
VERTEX
  5
227
330
21E
100
AcDbEntity
  8
Calque 1
 62
   179
420
  1842203
370
    35
100
AcDbVertex
100
AcDb2dVertex
 10
379.1929529646724
 20
-161.1065515533204
 30
0.0
  0
VERTEX
  5
228
330
21E
100
AcDbEntity
  8
Calque 1
 62
   179
420
  1842203
370
    35
100
AcDbVertex
100
AcDb2dVertex
 10
379.1929529646724
 20
-164.1068871907292
 30
0.0
  0
VERTEX
  5
229
330
21E
100
AcDbEntity
  8
Calque 1
 62
   179
420
  1842203
370
    35
100
AcDbVertex
100
AcDb2dVertex
 10
389.192693716932
 20
-164.1068871907292
 30
0.0
  0
VERTEX
  5
22A
330
21E
100
AcDbEntity
  8
Calque 1
 62
   179
420
  1842203
370
    35
100
AcDbVertex
100
AcDb2dVertex
 10
389.192693716932
 20
-161.1065515533204
 30
0.0
  0
VERTEX
  5
22B
330
21E
100
AcDbEntity
  8
Calque 1
 62
   179
420
  1842203
370
    35
100
AcDbVertex
100
AcDb2dVertex
 10
394.1929086028375
 20
-161.1065515533204
 30
0.0
  0
SEQEND
  5
22C
330
21E
100
AcDbEntity
  8
Calque 1
370
    35
  0
POLYLINE
  5
22D
330
1F
100
AcDbEntity
  8
Calque 1
 62
   179
420
  1842203
370
    35
100
AcDb2dPolyline
 66
     1
 10
0.0
 20
0.0
 30
0.0
  0
VERTEX
  5
22E
330
22D
100
AcDbEntity
  8
Calque 1
 62
   179
420
  1842203
370
    35
100
AcDbVertex
100
AcDb2dVertex
 10
414.1930791269083
 20
-161.1065515533204
 30
0.0
  0
VERTEX
  5
22F
330
22D
100
AcDbEntity
  8
Calque 1
 62
   179
420
  1842203
370
    35
100
AcDbVertex
100
AcDb2dVertex
 10
414.1930791269083
 20
-41.10621742844727
 30
0.0
  0
VERTEX
  5
230
330
22D
100
AcDbEntity
  8
Calque 1
 62
   179
420
  1842203
370
    35
100
AcDbVertex
100
AcDb2dVertex
 10
409.1928642410027
 20
-41.10621742844727
 30
0.0
  0
VERTEX
  5
231
330
22D
100
AcDbEntity
  8
Calque 1
 62
   179
420
  1842203
370
    35
100
AcDbVertex
100
AcDb2dVertex
 10
409.1928642410027
 20
-37.60634261613399
 30
0.0
  0
VERTEX
  5
232
330
22D
100
AcDbEntity
  8
Calque 1
 62
   179
420
  1842203
370
    35
100
AcDbVertex
100
AcDb2dVertex
 10
399.1931234887431
 20
-37.60634261613399
 30
0.0
  0
VERTEX
  5
233
330
22D
100
AcDbEntity
  8
Calque 1
 62
   179
420
  1842203
370
    35
100
AcDbVertex
100
AcDb2dVertex
 10
399.1931234887431
 20
-41.10621742844727
 30
0.0
  0
VERTEX
  5
234
330
22D
100
AcDbEntity
  8
Calque 1
 62
   179
420
  1842203
370
    35
100
AcDbVertex
100
AcDb2dVertex
 10
394.1929086028375
 20
-41.10621742844727
 30
0.0
  0
VERTEX
  5
235
330
22D
100
AcDbEntity
  8
Calque 1
 62
   179
420
  1842203
370
    35
100
AcDbVertex
100
AcDb2dVertex
 10
394.1929086028375
 20
-161.1065515533204
 30
0.0
  0
VERTEX
  5
236
330
22D
100
AcDbEntity
  8
Calque 1
 62
   179
420
  1842203
370
    35
100
AcDbVertex
100
AcDb2dVertex
 10
399.1931234887431
 20
-161.1065515533204
 30
0.0
  0
VERTEX
  5
237
330
22D
100
AcDbEntity
  8
Calque 1
 62
   179
420
  1842203
370
    35
100
AcDbVertex
100
AcDb2dVertex
 10
399.1931234887431
 20
-164.1068871907292
 30
0.0
  0
VERTEX
  5
238
330
22D
100
AcDbEntity
  8
Calque 1
 62
   179
420
  1842203
370
    35
100
AcDbVertex
100
AcDb2dVertex
 10
409.1928642410027
 20
-164.1068871907292
 30
0.0
  0
VERTEX
  5
239
330
22D
100
AcDbEntity
  8
Calque 1
 62
   179
420
  1842203
370
    35
100
AcDbVertex
100
AcDb2dVertex
 10
409.1928642410027
 20
-161.1065515533204
 30
0.0
  0
VERTEX
  5
23A
330
22D
100
AcDbEntity
  8
Calque 1
 62
   179
420
  1842203
370
    35
100
AcDbVertex
100
AcDb2dVertex
 10
414.1930791269083
 20
-161.1065515533204
 30
0.0
  0
SEQEND
  5
23B
330
22D
100
AcDbEntity
  8
Calque 1
370
    35
  0
POLYLINE
  5
23C
330
1F
100
AcDbEntity
  8
Calque 1
 62
   179
420
  1842203
370
    35
100
AcDb2dPolyline
 66
     1
 10
0.0
 20
0.0
 30
0.0
  0
VERTEX
  5
23D
330
23C
100
AcDbEntity
  8
Calque 1
 62
   179
420
  1842203
370
    35
100
AcDbVertex
100
AcDb2dVertex
 10
52.5963074708011
 20
-161.1065515533204
 30
0.0
  0
VERTEX
  5
23E
330
23C
100
AcDbEntity
  8
Calque 1
 62
   179
420
  1842203
370
    35
100
AcDbVertex
100
AcDb2dVertex
 10
52.5963074708011
 20
-41.10638968333517
 30
0.0
  0
VERTEX
  5
23F
330
23C
100
AcDbEntity
  8
Calque 1
 62
   179
420
  1842203
370
    35
100
AcDbVertex
100
AcDb2dVertex
 10
47.5960925848955
 20
-41.10638968333517
 30
0.0
  0
VERTEX
  5
240
330
23C
100
AcDbEntity
  8
Calque 1
 62
   179
420
  1842203
370
    35
100
AcDbVertex
100
AcDb2dVertex
 10
47.5960925848955
 20
-37.60651487102189
 30
0.0
  0
VERTEX
  5
241
330
23C
100
AcDbEntity
  8
Calque 1
 62
   179
420
  1842203
370
    35
100
AcDbVertex
100
AcDb2dVertex
 10
37.5963518326359
 20
-37.60651487102189
 30
0.0
  0
VERTEX
  5
242
330
23C
100
AcDbEntity
  8
Calque 1
 62
   179
420
  1842203
370
    35
100
AcDbVertex
100
AcDb2dVertex
 10
37.5963518326359
 20
-41.10638968333517
 30
0.0
  0
VERTEX
  5
243
330
23C
100
AcDbEntity
  8
Calque 1
 62
   179
420
  1842203
370
    35
100
AcDbVertex
100
AcDb2dVertex
 10
32.59613694673031
 20
-41.10638968333517
 30
0.0
  0
VERTEX
  5
244
330
23C
100
AcDbEntity
  8
Calque 1
 62
   179
420
  1842203
370
    35
100
AcDbVertex
100
AcDb2dVertex
 10
32.59613694673031
 20
-161.1065515533204
 30
0.0
  0
VERTEX
  5
245
330
23C
100
AcDbEntity
  8
Calque 1
 62
   179
420
  1842203
370
    35
100
AcDbVertex
100
AcDb2dVertex
 10
37.5963518326359
 20
-161.1065515533204
 30
0.0
  0
VERTEX
  5
246
330
23C
100
AcDbEntity
  8
Calque 1
 62
   179
420
  1842203
370
    35
100
AcDbVertex
100
AcDb2dVertex
 10
37.5963518326359
 20
-164.1065426809534
 30
0.0
  0
VERTEX
  5
247
330
23C
100
AcDbEntity
  8
Calque 1
 62
   179
420
  1842203
370
    35
100
AcDbVertex
100
AcDb2dVertex
 10
47.5960925848955
 20
-164.1065426809534
 30
0.0
  0
VERTEX
  5
248
330
23C
100
AcDbEntity
  8
Calque 1
 62
   179
420
  1842203
370
    35
100
AcDbVertex
100
AcDb2dVertex
 10
47.5960925848955
 20
-161.1065515533204
 30
0.0
  0
VERTEX
  5
249
330
23C
100
AcDbEntity
  8
Calque 1
 62
   179
420
  1842203
370
    35
100
AcDbVertex
100
AcDb2dVertex
 10
52.5963074708011
 20
-161.1065515533204
 30
0.0
  0
SEQEND
  5
24A
330
23C
100
AcDbEntity
  8
Calque 1
370
    35
  0
POLYLINE
  5
24B
330
1F
100
AcDbEntity
  8
Calque 1
 62
   179
420
  1842203
370
    35
100
AcDb2dPolyline
 66
     1
 10
0.0
 20
0.0
 30
0.0
  0
VERTEX
  5
24C
330
24B
100
AcDbEntity
  8
Calque 1
 62
   179
420
  1842203
370
    35
100
AcDbVertex
100
AcDb2dVertex
 10
72.59647799487189
 20
-161.1065515533204
 30
0.0
  0
VERTEX
  5
24D
330
24B
100
AcDbEntity
  8
Calque 1
 62
   179
420
  1842203
370
    35
100
AcDbVertex
100
AcDb2dVertex
 10
72.59647799487189
 20
-41.10638968333517
 30
0.0
  0
VERTEX
  5
24E
330
24B
100
AcDbEntity
  8
Calque 1
 62
   179
420
  1842203
370
    35
100
AcDbVertex
100
AcDb2dVertex
 10
67.59626310896628
 20
-41.10638968333517
 30
0.0
  0
VERTEX
  5
24F
330
24B
100
AcDbEntity
  8
Calque 1
 62
   179
420
  1842203
370
    35
100
AcDbVertex
100
AcDb2dVertex
 10
67.59626310896628
 20
-37.60651487102189
 30
0.0
  0
VERTEX
  5
250
330
24B
100
AcDbEntity
  8
Calque 1
 62
   179
420
  1842203
370
    35
100
AcDbVertex
100
AcDb2dVertex
 10
57.59652235670669
 20
-37.60651487102189
 30
0.0
  0
VERTEX
  5
251
330
24B
100
AcDbEntity
  8
Calque 1
 62
   179
420
  1842203
370
    35
100
AcDbVertex
100
AcDb2dVertex
 10
57.59652235670669
 20
-41.10638968333517
 30
0.0
  0
VERTEX
  5
252
330
24B
100
AcDbEntity
  8
Calque 1
 62
   179
420
  1842203
370
    35
100
AcDbVertex
100
AcDb2dVertex
 10
52.5963074708011
 20
-41.10638968333517
 30
0.0
  0
VERTEX
  5
253
330
24B
100
AcDbEntity
  8
Calque 1
 62
   179
420
  1842203
370
    35
100
AcDbVertex
100
AcDb2dVertex
 10
52.5963074708011
 20
-161.1065515533204
 30
0.0
  0
VERTEX
  5
254
330
24B
100
AcDbEntity
  8
Calque 1
 62
   179
420
  1842203
370
    35
100
AcDbVertex
100
AcDb2dVertex
 10
57.59652235670669
 20
-161.1065515533204
 30
0.0
  0
VERTEX
  5
255
330
24B
100
AcDbEntity
  8
Calque 1
 62
   179
420
  1842203
370
    35
100
AcDbVertex
100
AcDb2dVertex
 10
57.59652235670669
 20
-164.1065426809534
 30
0.0
  0
VERTEX
  5
256
330
24B
100
AcDbEntity
  8
Calque 1
 62
   179
420
  1842203
370
    35
100
AcDbVertex
100
AcDb2dVertex
 10
67.59626310896628
 20
-164.1065426809534
 30
0.0
  0
VERTEX
  5
257
330
24B
100
AcDbEntity
  8
Calque 1
 62
   179
420
  1842203
370
    35
100
AcDbVertex
100
AcDb2dVertex
 10
67.59626310896628
 20
-161.1065515533204
 30
0.0
  0
VERTEX
  5
258
330
24B
100
AcDbEntity
  8
Calque 1
 62
   179
420
  1842203
370
    35
100
AcDbVertex
100
AcDb2dVertex
 10
72.59647799487189
 20
-161.1065515533204
 30
0.0
  0
SEQEND
  5
259
330
24B
100
AcDbEntity
  8
Calque 1
370
    35
  0
POLYLINE
  5
25A
330
1F
100
AcDbEntity
  8
Calque 1
 62
   179
420
  1842203
370
    35
100
AcDb2dPolyline
 66
     1
 10
0.0
 20
0.0
 30
0.0
  0
VERTEX
  5
25B
330
25A
100
AcDbEntity
  8
Calque 1
 62
   179
420
  1842203
370
    35
100
AcDbVertex
100
AcDb2dVertex
 10
92.59664851894267
 20
-161.1065515533204
 30
0.0
  0
VERTEX
  5
25C
330
25A
100
AcDbEntity
  8
Calque 1
 62
   179
420
  1842203
370
    35
100
AcDbVertex
100
AcDb2dVertex
 10
92.59664851894267
 20
-41.10638968333517
 30
0.0
  0
VERTEX
  5
25D
330
25A
100
AcDbEntity
  8
Calque 1
 62
   179
420
  1842203
370
    35
100
AcDbVertex
100
AcDb2dVertex
 10
87.59643363303708
 20
-41.10638968333517
 30
0.0
  0
VERTEX
  5
25E
330
25A
100
AcDbEntity
  8
Calque 1
 62
   179
420
  1842203
370
    35
100
AcDbVertex
100
AcDb2dVertex
 10
87.59643363303708
 20
-37.60651487102189
 30
0.0
  0
VERTEX
  5
25F
330
25A
100
AcDbEntity
  8
Calque 1
 62
   179
420
  1842203
370
    35
100
AcDbVertex
100
AcDb2dVertex
 10
77.59669288077748
 20
-37.60651487102189
 30
0.0
  0
VERTEX
  5
260
330
25A
100
AcDbEntity
  8
Calque 1
 62
   179
420
  1842203
370
    35
100
AcDbVertex
100
AcDb2dVertex
 10
77.59669288077748
 20
-41.10638968333517
 30
0.0
  0
VERTEX
  5
261
330
25A
100
AcDbEntity
  8
Calque 1
 62
   179
420
  1842203
370
    35
100
AcDbVertex
100
AcDb2dVertex
 10
72.59647799487189
 20
-41.10638968333517
 30
0.0
  0
VERTEX
  5
262
330
25A
100
AcDbEntity
  8
Calque 1
 62
   179
420
  1842203
370
    35
100
AcDbVertex
100
AcDb2dVertex
 10
72.59647799487189
 20
-161.1065515533204
 30
0.0
  0
VERTEX
  5
263
330
25A
100
AcDbEntity
  8
Calque 1
 62
   179
420
  1842203
370
    35
100
AcDbVertex
100
AcDb2dVertex
 10
77.59669288077748
 20
-161.1065515533204
 30
0.0
  0
VERTEX
  5
264
330
25A
100
AcDbEntity
  8
Calque 1
 62
   179
420
  1842203
370
    35
100
AcDbVertex
100
AcDb2dVertex
 10
77.59669288077748
 20
-164.1065426809534
 30
0.0
  0
VERTEX
  5
265
330
25A
100
AcDbEntity
  8
Calque 1
 62
   179
420
  1842203
370
    35
100
AcDbVertex
100
AcDb2dVertex
 10
87.59643363303708
 20
-164.1065426809534
 30
0.0
  0
VERTEX
  5
266
330
25A
100
AcDbEntity
  8
Calque 1
 62
   179
420
  1842203
370
    35
100
AcDbVertex
100
AcDb2dVertex
 10
87.59643363303708
 20
-161.1065515533204
 30
0.0
  0
VERTEX
  5
267
330
25A
100
AcDbEntity
  8
Calque 1
 62
   179
420
  1842203
370
    35
100
AcDbVertex
100
AcDb2dVertex
 10
92.59664851894267
 20
-161.1065515533204
 30
0.0
  0
SEQEND
  5
268
330
25A
100
AcDbEntity
  8
Calque 1
370
    35
  0
POLYLINE
  5
269
330
1F
100
AcDbEntity
  8
Calque 1
 62
   179
420
  1842203
370
    35
100
AcDb2dPolyline
 66
     1
 10
0.0
 20
0.0
 30
0.0
  0
VERTEX
  5
26A
330
269
100
AcDbEntity
  8
Calque 1
 62
   179
420
  1842203
370
    35
100
AcDbVertex
100
AcDb2dVertex
 10
126.578748293701
 20
-90.60176466219495
 30
0.0
  0
VERTEX
  5
26B
330
269
100
AcDbEntity
  8
Calque 1
 62
   179
420
  1842203
370
    35
100
AcDbVertex
100
AcDb2dVertex
 10
126.578748293701
 20
-100.6015054144546
 30
0.0
  0
VERTEX
  5
26C
330
269
100
AcDbEntity
  8
Calque 1
 62
   179
420
  1842203
370
    35
100
AcDbVertex
100
AcDb2dVertex
 10
123.5780681465163
 20
-100.6015054144546
 30
0.0
  0
VERTEX
  5
26D
330
269
100
AcDbEntity
  8
Calque 1
 62
   179
420
  1842203
370
    35
100
AcDbVertex
100
AcDb2dVertex
 10
123.5780681465163
 20
-90.60176466219495
 30
0.0
  0
VERTEX
  5
26E
330
269
100
AcDbEntity
  8
Calque 1
 62
   179
420
  1842203
370
    35
100
AcDbVertex
100
AcDb2dVertex
 10
126.578748293701
 20
-90.60176466219495
 30
0.0
  0
SEQEND
  5
26F
330
269
100
AcDbEntity
  8
Calque 1
370
    35
  0
POLYLINE
  5
270
330
1F
100
AcDbEntity
  8
Calque 1
 62
   179
420
  1842203
370
    35
100
AcDb2dPolyline
 66
     1
 10
0.0
 20
0.0
 30
0.0
  0
VERTEX
  5
271
330
270
100
AcDbEntity
  8
Calque 1
 62
   179
420
  1842203
370
    35
100
AcDbVertex
100
AcDb2dVertex
 10
109.0900540351843
 20
-90.50392388586884
 30
0.0
  0
VERTEX
  5
272
330
270
100
AcDbEntity
  8
Calque 1
 62
   179
420
  1842203
370
    35
100
AcDbVertex
100
AcDb2dVertex
 10
117.7496517595968
 20
-85.50370899996325
 30
0.0
  0
VERTEX
  5
273
330
270
100
AcDbEntity
  8
Calque 1
 62
   179
420
  1842203
370
    35
100
AcDbVertex
100
AcDb2dVertex
 10
119.2503363429649
 20
-88.10200172901796
 30
0.0
  0
VERTEX
  5
274
330
270
100
AcDbEntity
  8
Calque 1
 62
   179
420
  1842203
370
    35
100
AcDbVertex
100
AcDb2dVertex
 10
110.5900495990008
 20
-93.10221661492355
 30
0.0
  0
VERTEX
  5
275
330
270
100
AcDbEntity
  8
Calque 1
 62
   179
420
  1842203
370
    35
100
AcDbVertex
100
AcDb2dVertex
 10
109.0900540351843
 20
-90.50392388586884
 30
0.0
  0
SEQEND
  5
276
330
270
100
AcDbEntity
  8
Calque 1
370
    35
  0
POLYLINE
  5
277
330
1F
100
AcDbEntity
  8
Calque 1
 62
   179
420
  1842203
370
    35
100
AcDb2dPolyline
 66
     1
 10
0.0
 20
0.0
 30
0.0
  0
VERTEX
  5
278
330
277
100
AcDbEntity
  8
Calque 1
 62
   179
420
  1842203
370
    35
100
AcDbVertex
100
AcDb2dVertex
 10
127.9560983773341
 20
-77.74121473172397
 30
0.0
  0
VERTEX
  5
279
330
277
100
AcDbEntity
  8
Calque 1
 62
   179
420
  1842203
370
    35
100
AcDbVertex
100
AcDb2dVertex
 10
127.9560983773341
 20
-113.4723906381994
 30
0.0
  0
VERTEX
  5
27A
330
277
100
AcDbEntity
  8
Calque 1
 62
   179
420
  1842203
370
    35
100
AcDbVertex
100
AcDb2dVertex
 10
97.01223031532217
 20
-95.6061136654101
 30
0.0
  0
VERTEX
  5
27B
330
277
100
AcDbEntity
  8
Calque 1
 62
   179
420
  1842203
370
    35
100
AcDbVertex
100
AcDb2dVertex
 10
127.9560983773341
 20
-77.74121473172397
 30
0.0
  0
SEQEND
  5
27C
330
277
100
AcDbEntity
  8
Calque 1
370
    35
  0
POLYLINE
  5
27D
330
1F
100
AcDbEntity
  8
Calque 1
 62
   179
420
  1842203
370
    35
100
AcDb2dPolyline
 66
     1
 10
0.0
 20
0.0
 30
0.0
  0
VERTEX
  5
27E
330
27D
100
AcDbEntity
  8
Calque 1
 62
   179
420
  1842203
370
    35
100
AcDbVertex
100
AcDb2dVertex
 10
117.7489627400452
 20
-105.6981830375831
 30
0.0
  0
VERTEX
  5
27F
330
27D
100
AcDbEntity
  8
Calque 1
 62
   179
420
  1842203
370
    35
100
AcDbVertex
100
AcDb2dVertex
 10
109.0893650156327
 20
-100.6979681516775
 30
0.0
  0
VERTEX
  5
280
330
27D
100
AcDbEntity
  8
Calque 1
 62
   179
420
  1842203
370
    35
100
AcDbVertex
100
AcDb2dVertex
 10
110.5893605794492
 20
-98.09967542262277
 30
0.0
  0
VERTEX
  5
281
330
27D
100
AcDbEntity
  8
Calque 1
 62
   179
420
  1842203
370
    35
100
AcDbVertex
100
AcDb2dVertex
 10
119.2496473234133
 20
-103.0998903085284
 30
0.0
  0
VERTEX
  5
282
330
27D
100
AcDbEntity
  8
Calque 1
 62
   179
420
  1842203
370
    35
100
AcDbVertex
100
AcDb2dVertex
 10
117.7489627400452
 20
-105.6981830375831
 30
0.0
  0
SEQEND
  5
283
330
27D
100
AcDbEntity
  8
Calque 1
370
    35
  0
POLYLINE
  5
284
330
1F
100
AcDbEntity
  8
Calque 1
 62
   179
420
  1842203
370
    35
100
AcDb2dPolyline
 66
     1
 10
0.0
 20
0.0
 30
0.0
  0
VERTEX
  5
285
330
284
100
AcDbEntity
  8
Calque 1
 62
   179
420
  1842203
370
    35
100
AcDbVertex
100
AcDb2dVertex
 10
126.578748293701
 20
-128.4663173552882
 30
0.0
  0
VERTEX
  5
286
330
284
100
AcDbEntity
  8
Calque 1
 62
   179
420
  1842203
370
    35
100
AcDbVertex
100
AcDb2dVertex
 10
126.578748293701
 20
-138.4660581075478
 30
0.0
  0
VERTEX
  5
287
330
284
100
AcDbEntity
  8
Calque 1
 62
   179
420
  1842203
370
    35
100
AcDbVertex
100
AcDb2dVertex
 10
123.5780681465163
 20
-138.4660581075478
 30
0.0
  0
VERTEX
  5
288
330
284
100
AcDbEntity
  8
Calque 1
 62
   179
420
  1842203
370
    35
100
AcDbVertex
100
AcDb2dVertex
 10
123.5780681465163
 20
-128.4663173552882
 30
0.0
  0
VERTEX
  5
289
330
284
100
AcDbEntity
  8
Calque 1
 62
   179
420
  1842203
370
    35
100
AcDbVertex
100
AcDb2dVertex
 10
126.578748293701
 20
-128.4663173552882
 30
0.0
  0
SEQEND
  5
28A
330
284
100
AcDbEntity
  8
Calque 1
370
    35
  0
POLYLINE
  5
28B
330
1F
100
AcDbEntity
  8
Calque 1
 62
   179
420
  1842203
370
    35
100
AcDb2dPolyline
 66
     1
 10
0.0
 20
0.0
 30
0.0
  0
VERTEX
  5
28C
330
28B
100
AcDbEntity
  8
Calque 1
 62
   179
420
  1842203
370
    35
100
AcDbVertex
100
AcDb2dVertex
 10
109.0900540351843
 20
-128.3684765789621
 30
0.0
  0
VERTEX
  5
28D
330
28B
100
AcDbEntity
  8
Calque 1
 62
   179
420
  1842203
370
    35
100
AcDbVertex
100
AcDb2dVertex
 10
117.7496517595968
 20
-123.3682616930565
 30
0.0
  0
VERTEX
  5
28E
330
28B
100
AcDbEntity
  8
Calque 1
 62
   179
420
  1842203
370
    35
100
AcDbVertex
100
AcDb2dVertex
 10
119.2503363429649
 20
-125.9665544221112
 30
0.0
  0
VERTEX
  5
28F
330
28B
100
AcDbEntity
  8
Calque 1
 62
   179
420
  1842203
370
    35
100
AcDbVertex
100
AcDb2dVertex
 10
110.5900495990008
 20
-130.9667693080168
 30
0.0
  0
VERTEX
  5
290
330
28B
100
AcDbEntity
  8
Calque 1
 62
   179
420
  1842203
370
    35
100
AcDbVertex
100
AcDb2dVertex
 10
109.0900540351843
 20
-128.3684765789621
 30
0.0
  0
SEQEND
  5
291
330
28B
100
AcDbEntity
  8
Calque 1
370
    35
  0
POLYLINE
  5
292
330
1F
100
AcDbEntity
  8
Calque 1
 62
   179
420
  1842203
370
    35
100
AcDb2dPolyline
 66
     1
 10
0.0
 20
0.0
 30
0.0
  0
VERTEX
  5
293
330
292
100
AcDbEntity
  8
Calque 1
 62
   179
420
  1842203
370
    35
100
AcDbVertex
100
AcDb2dVertex
 10
127.9560983773341
 20
-115.6057674248172
 30
0.0
  0
VERTEX
  5
294
330
292
100
AcDbEntity
  8
Calque 1
 62
   179
420
  1842203
370
    35
100
AcDbVertex
100
AcDb2dVertex
 10
127.9560983773341
 20
-151.3369433312926
 30
0.0
  0
VERTEX
  5
295
330
292
100
AcDbEntity
  8
Calque 1
 62
   179
420
  1842203
370
    35
100
AcDbVertex
100
AcDb2dVertex
 10
97.01223031532217
 20
-133.4706663585033
 30
0.0
  0
VERTEX
  5
296
330
292
100
AcDbEntity
  8
Calque 1
 62
   179
420
  1842203
370
    35
100
AcDbVertex
100
AcDb2dVertex
 10
127.9560983773341
 20
-115.6057674248172
 30
0.0
  0
SEQEND
  5
297
330
292
100
AcDbEntity
  8
Calque 1
370
    35
  0
POLYLINE
  5
298
330
1F
100
AcDbEntity
  8
Calque 1
 62
   179
420
  1842203
370
    35
100
AcDb2dPolyline
 66
     1
 10
0.0
 20
0.0
 30
0.0
  0
VERTEX
  5
299
330
298
100
AcDbEntity
  8
Calque 1
 62
   179
420
  1842203
370
    35
100
AcDbVertex
100
AcDb2dVertex
 10
117.7489627400452
 20
-143.5627357306763
 30
0.0
  0
VERTEX
  5
29A
330
298
100
AcDbEntity
  8
Calque 1
 62
   179
420
  1842203
370
    35
100
AcDbVertex
100
AcDb2dVertex
 10
109.0893650156327
 20
-138.5625208447707
 30
0.0
  0
VERTEX
  5
29B
330
298
100
AcDbEntity
  8
Calque 1
 62
   179
420
  1842203
370
    35
100
AcDbVertex
100
AcDb2dVertex
 10
110.5893605794492
 20
-135.964228115716
 30
0.0
  0
VERTEX
  5
29C
330
298
100
AcDbEntity
  8
Calque 1
 62
   179
420
  1842203
370
    35
100
AcDbVertex
100
AcDb2dVertex
 10
119.2496473234133
 20
-140.9644430016216
 30
0.0
  0
VERTEX
  5
29D
330
298
100
AcDbEntity
  8
Calque 1
 62
   179
420
  1842203
370
    35
100
AcDbVertex
100
AcDb2dVertex
 10
117.7489627400452
 20
-143.5627357306763
 30
0.0
  0
SEQEND
  5
29E
330
298
100
AcDbEntity
  8
Calque 1
370
    35
  0
POLYLINE
  5
29F
330
1F
100
AcDbEntity
  8
Calque 1
 62
   179
420
  1842203
370
    35
100
AcDb2dPolyline
 66
     1
 10
0.0
 20
0.0
 30
0.0
  0
VERTEX
  5
2A0
330
29F
100
AcDbEntity
  8
Calque 1
 62
   179
420
  1842203
370
    35
100
AcDbVertex
100
AcDb2dVertex
 10
126.578748293701
 20
-52.24886936191066
 30
0.0
  0
VERTEX
  5
2A1
330
29F
100
AcDbEntity
  8
Calque 1
 62
   179
420
  1842203
370
    35
100
AcDbVertex
100
AcDb2dVertex
 10
126.578748293701
 20
-62.24861011417026
 30
0.0
  0
VERTEX
  5
2A2
330
29F
100
AcDbEntity
  8
Calque 1
 62
   179
420
  1842203
370
    35
100
AcDbVertex
100
AcDb2dVertex
 10
123.5780681465163
 20
-62.24861011417026
 30
0.0
  0
VERTEX
  5
2A3
330
29F
100
AcDbEntity
  8
Calque 1
 62
   179
420
  1842203
370
    35
100
AcDbVertex
100
AcDb2dVertex
 10
123.5780681465163
 20
-52.24886936191066
 30
0.0
  0
VERTEX
  5
2A4
330
29F
100
AcDbEntity
  8
Calque 1
 62
   179
420
  1842203
370
    35
100
AcDbVertex
100
AcDb2dVertex
 10
126.578748293701
 20
-52.24886936191066
 30
0.0
  0
SEQEND
  5
2A5
330
29F
100
AcDbEntity
  8
Calque 1
370
    35
  0
POLYLINE
  5
2A6
330
1F
100
AcDbEntity
  8
Calque 1
 62
   179
420
  1842203
370
    35
100
AcDb2dPolyline
 66
     1
 10
0.0
 20
0.0
 30
0.0
  0
VERTEX
  5
2A7
330
2A6
100
AcDbEntity
  8
Calque 1
 62
   179
420
  1842203
370
    35
100
AcDbVertex
100
AcDb2dVertex
 10
109.0900540351843
 20
-52.15033956603295
 30
0.0
  0
VERTEX
  5
2A8
330
2A6
100
AcDbEntity
  8
Calque 1
 62
   179
420
  1842203
370
    35
100
AcDbVertex
100
AcDb2dVertex
 10
117.7496517595968
 20
-47.15081369967896
 30
0.0
  0
VERTEX
  5
2A9
330
2A6
100
AcDbEntity
  8
Calque 1
 62
   179
420
  1842203
370
    35
100
AcDbVertex
100
AcDb2dVertex
 10
119.2503363429649
 20
-49.74910642873366
 30
0.0
  0
VERTEX
  5
2AA
330
2A6
100
AcDbEntity
  8
Calque 1
 62
   179
420
  1842203
370
    35
100
AcDbVertex
100
AcDb2dVertex
 10
110.5900495990008
 20
-54.74932131463925
 30
0.0
  0
VERTEX
  5
2AB
330
2A6
100
AcDbEntity
  8
Calque 1
 62
   179
420
  1842203
370
    35
100
AcDbVertex
100
AcDb2dVertex
 10
109.0900540351843
 20
-52.15033956603295
 30
0.0
  0
SEQEND
  5
2AC
330
2A6
100
AcDbEntity
  8
Calque 1
370
    35
  0
POLYLINE
  5
2AD
330
1F
100
AcDbEntity
  8
Calque 1
 62
   179
420
  1842203
370
    35
100
AcDb2dPolyline
 66
     1
 10
0.0
 20
0.0
 30
0.0
  0
VERTEX
  5
2AE
330
2AD
100
AcDbEntity
  8
Calque 1
 62
   179
420
  1842203
370
    35
100
AcDbVertex
100
AcDb2dVertex
 10
127.9560983773341
 20
-39.38831943143968
 30
0.0
  0
VERTEX
  5
2AF
330
2AD
100
AcDbEntity
  8
Calque 1
 62
   179
420
  1842203
370
    35
100
AcDbVertex
100
AcDb2dVertex
 10
127.9560983773341
 20
-75.11880631836354
 30
0.0
  0
VERTEX
  5
2B0
330
2AD
100
AcDbEntity
  8
Calque 1
 62
   179
420
  1842203
370
    35
100
AcDbVertex
100
AcDb2dVertex
 10
97.01223031532217
 20
-57.25321836512581
 30
0.0
  0
VERTEX
  5
2B1
330
2AD
100
AcDbEntity
  8
Calque 1
 62
   179
420
  1842203
370
    35
100
AcDbVertex
100
AcDb2dVertex
 10
127.9560983773341
 20
-39.38831943143968
 30
0.0
  0
SEQEND
  5
2B2
330
2AD
100
AcDbEntity
  8
Calque 1
370
    35
  0
POLYLINE
  5
2B3
330
1F
100
AcDbEntity
  8
Calque 1
 62
   179
420
  1842203
370
    35
100
AcDb2dPolyline
 66
     1
 10
0.0
 20
0.0
 30
0.0
  0
VERTEX
  5
2B4
330
2B3
100
AcDbEntity
  8
Calque 1
 62
   179
420
  1842203
370
    35
100
AcDbVertex
100
AcDb2dVertex
 10
117.7489627400452
 20
-67.34459871774719
 30
0.0
  0
VERTEX
  5
2B5
330
2B3
100
AcDbEntity
  8
Calque 1
 62
   179
420
  1842203
370
    35
100
AcDbVertex
100
AcDb2dVertex
 10
109.0893650156327
 20
-62.34507285139318
 30
0.0
  0
VERTEX
  5
2B6
330
2B3
100
AcDbEntity
  8
Calque 1
 62
   179
420
  1842203
370
    35
100
AcDbVertex
100
AcDb2dVertex
 10
110.5893605794492
 20
-59.74678012233848
 30
0.0
  0
VERTEX
  5
2B7
330
2B3
100
AcDbEntity
  8
Calque 1
 62
   179
420
  1842203
370
    35
100
AcDbVertex
100
AcDb2dVertex
 10
119.2496473234133
 20
-64.74630598869248
 30
0.0
  0
VERTEX
  5
2B8
330
2B3
100
AcDbEntity
  8
Calque 1
 62
   179
420
  1842203
370
    35
100
AcDbVertex
100
AcDb2dVertex
 10
117.7489627400452
 20
-67.34459871774719
 30
0.0
  0
SEQEND
  5
2B9
330
2B3
100
AcDbEntity
  8
Calque 1
370
    35
  0
POLYLINE
  5
2BA
330
1F
100
AcDbEntity
  8
Calque 1
 62
   179
420
  1842203
370
    35
100
AcDb2dPolyline
 66
     1
 10
0.0
 20
0.0
 30
0.0
  0
VERTEX
  5
2BB
330
2BA
100
AcDbEntity
  8
Calque 1
 62
   179
420
  1842203
370
    35
100
AcDbVertex
100
AcDb2dVertex
 10
126.578748293701
 20
-166.071281932319
 30
0.0
  0
VERTEX
  5
2BC
330
2BA
100
AcDbEntity
  8
Calque 1
 62
   179
420
  1842203
370
    35
100
AcDbVertex
100
AcDb2dVertex
 10
126.578748293701
 20
-176.0710226845786
 30
0.0
  0
VERTEX
  5
2BD
330
2BA
100
AcDbEntity
  8
Calque 1
 62
   179
420
  1842203
370
    35
100
AcDbVertex
100
AcDb2dVertex
 10
123.5780681465163
 20
-176.0710226845786
 30
0.0
  0
VERTEX
  5
2BE
330
2BA
100
AcDbEntity
  8
Calque 1
 62
   179
420
  1842203
370
    35
100
AcDbVertex
100
AcDb2dVertex
 10
123.5780681465163
 20
-166.071281932319
 30
0.0
  0
VERTEX
  5
2BF
330
2BA
100
AcDbEntity
  8
Calque 1
 62
   179
420
  1842203
370
    35
100
AcDbVertex
100
AcDb2dVertex
 10
126.578748293701
 20
-166.071281932319
 30
0.0
  0
SEQEND
  5
2C0
330
2BA
100
AcDbEntity
  8
Calque 1
370
    35
  0
POLYLINE
  5
2C1
330
1F
100
AcDbEntity
  8
Calque 1
 62
   179
420
  1842203
370
    35
100
AcDb2dPolyline
 66
     1
 10
0.0
 20
0.0
 30
0.0
  0
VERTEX
  5
2C2
330
2C1
100
AcDbEntity
  8
Calque 1
 62
   179
420
  1842203
370
    35
100
AcDbVertex
100
AcDb2dVertex
 10
122.4136251043253
 20
-178.502572682148
 30
0.0
  0
VERTEX
  5
2C3
330
2C1
100
AcDbEntity
  8
Calque 1
 62
   179
420
  1842203
370
    35
100
AcDbVertex
100
AcDb2dVertex
 10
109.5386057632709
 20
-171.0687407400182
 30
0.0
  0
VERTEX
  5
2C4
330
2C1
100
AcDbEntity
  8
Calque 1
 62
   179
420
  1842203
370
    35
100
AcDbVertex
100
AcDb2dVertex
 10
122.4136251043253
 20
-163.6355978174401
 30
0.0
  0
VERTEX
  5
2C5
330
2C1
100
AcDbEntity
  8
Calque 1
 62
   179
420
  1842203
370
    35
100
AcDbVertex
100
AcDb2dVertex
 10
122.4136251043253
 20
-178.502572682148
 30
0.0
  0
SEQEND
  5
2C6
330
2C1
100
AcDbEntity
  8
Calque 1
370
    35
  0
POLYLINE
  5
2C7
330
1F
100
AcDbEntity
  8
Calque 1
 62
   179
420
  1842203
370
    35
100
AcDb2dPolyline
 66
     1
 10
0.0
 20
0.0
 30
0.0
  0
VERTEX
  5
2C8
330
2C7
100
AcDbEntity
  8
Calque 1
 62
   179
420
  1842203
370
    35
100
AcDbVertex
100
AcDb2dVertex
 10
109.0900540351843
 20
-165.9734411559929
 30
0.0
  0
VERTEX
  5
2C9
330
2C7
100
AcDbEntity
  8
Calque 1
 62
   179
420
  1842203
370
    35
100
AcDbVertex
100
AcDb2dVertex
 10
117.7496517595968
 20
-160.9732262700873
 30
0.0
  0
VERTEX
  5
2CA
330
2C7
100
AcDbEntity
  8
Calque 1
 62
   179
420
  1842203
370
    35
100
AcDbVertex
100
AcDb2dVertex
 10
119.2503363429649
 20
-163.571518999142
 30
0.0
  0
VERTEX
  5
2CB
330
2C7
100
AcDbEntity
  8
Calque 1
 62
   179
420
  1842203
370
    35
100
AcDbVertex
100
AcDb2dVertex
 10
110.5900495990008
 20
-168.5717338850476
 30
0.0
  0
VERTEX
  5
2CC
330
2C7
100
AcDbEntity
  8
Calque 1
 62
   179
420
  1842203
370
    35
100
AcDbVertex
100
AcDb2dVertex
 10
109.0900540351843
 20
-165.9734411559929
 30
0.0
  0
SEQEND
  5
2CD
330
2C7
100
AcDbEntity
  8
Calque 1
370
    35
  0
POLYLINE
  5
2CE
330
1F
100
AcDbEntity
  8
Calque 1
 62
   179
420
  1842203
370
    35
100
AcDb2dPolyline
 66
     1
 10
0.0
 20
0.0
 30
0.0
  0
VERTEX
  5
2CF
330
2CE
100
AcDbEntity
  8
Calque 1
 62
   179
420
  1842203
370
    35
100
AcDbVertex
100
AcDb2dVertex
 10
127.9560983773341
 20
-153.210732001848
 30
0.0
  0
VERTEX
  5
2D0
330
2CE
100
AcDbEntity
  8
Calque 1
 62
   179
420
  1842203
370
    35
100
AcDbVertex
100
AcDb2dVertex
 10
127.9560983773341
 20
-188.9419079083235
 30
0.0
  0
VERTEX
  5
2D1
330
2CE
100
AcDbEntity
  8
Calque 1
 62
   179
420
  1842203
370
    35
100
AcDbVertex
100
AcDb2dVertex
 10
97.01223031532217
 20
-171.0756309355342
 30
0.0
  0
VERTEX
  5
2D2
330
2CE
100
AcDbEntity
  8
Calque 1
 62
   179
420
  1842203
370
    35
100
AcDbVertex
100
AcDb2dVertex
 10
127.9560983773341
 20
-153.210732001848
 30
0.0
  0
SEQEND
  5
2D3
330
2CE
100
AcDbEntity
  8
Calque 1
370
    35
  0
POLYLINE
  5
2D4
330
1F
100
AcDbEntity
  8
Calque 1
 62
   179
420
  1842203
370
    35
100
AcDb2dPolyline
 66
     1
 10
0.0
 20
0.0
 30
0.0
  0
VERTEX
  5
2D5
330
2D4
100
AcDbEntity
  8
Calque 1
 62
   179
420
  1842203
370
    35
100
AcDbVertex
100
AcDb2dVertex
 10
117.7489627400452
 20
-181.1677003077071
 30
0.0
  0
VERTEX
  5
2D6
330
2D4
100
AcDbEntity
  8
Calque 1
 62
   179
420
  1842203
370
    35
100
AcDbVertex
100
AcDb2dVertex
 10
109.0893650156327
 20
-176.1674854218015
 30
0.0
  0
VERTEX
  5
2D7
330
2D4
100
AcDbEntity
  8
Calque 1
 62
   179
420
  1842203
370
    35
100
AcDbVertex
100
AcDb2dVertex
 10
110.5893605794492
 20
-173.5691926927468
 30
0.0
  0
VERTEX
  5
2D8
330
2D4
100
AcDbEntity
  8
Calque 1
 62
   179
420
  1842203
370
    35
100
AcDbVertex
100
AcDb2dVertex
 10
119.2496473234133
 20
-178.5694075786524
 30
0.0
  0
VERTEX
  5
2D9
330
2D4
100
AcDbEntity
  8
Calque 1
 62
   179
420
  1842203
370
    35
100
AcDbVertex
100
AcDb2dVertex
 10
117.7489627400452
 20
-181.1677003077071
 30
0.0
  0
SEQEND
  5
2DA
330
2D4
100
AcDbEntity
  8
Calque 1
370
    35
  0
SPLINE
  5
2DB
330
1F
100
AcDbEntity
  8
Calque 1
 62
   179
420
  1842203
370
    35
100
AcDbSpline
210
0.0
220
0.0
230
1.0
 70
    11
 71
     3
 72
    17
 73
    13
 74
     0
 42
0.0000000001
 43
0.0000000001
 40
0.0
 40
0.0
 40
0.0
 40
0.0
 40
1.0
 40
1.0
 40
1.0
 40
2.0
 40
2.0
 40
2.0
 40
3.0
 40
3.0
 40
3.0
 40
4.0
 40
4.0
 40
4.0
 40
4.0
 10
117.7338043099101
 20
-52.28056426128391
 30
0.0
 10
120.4774801643508
 20
-52.28056426128391
 30
0.0
 10
122.7009462573393
 20
-54.50471937382397
 30
0.0
 10
122.7009462573393
 20
-57.24770620871307
 30
0.0
 10
122.7009462573393
 20
-59.99138206315376
 30
0.0
 10
120.4774801643508
 20
-62.21484815614223
 30
0.0
 10
117.7338043099101
 20
-62.21484815614223
 30
0.0
 10
114.990817475021
 20
-62.21484815614223
 30
0.0
 10
112.766662362481
 20
-59.99138206315376
 30
0.0
 10
112.766662362481
 20
-57.24770620871307
 30
0.0
 10
112.766662362481
 20
-54.50471937382397
 30
0.0
 10
114.990817475021
 20
-52.28056426128391
 30
0.0
 10
117.7338043099101
 20
-52.28056426128391
 30
0.0
  0
MTEXT
  5
2DC
330
1F
100
AcDbEntity
  8
Calque 1
 62
   179
420
  1842203
100
AcDbMText
 10
-140.3994469693159
 20
-230.6758221482714
 30
0.0
 40
2.87866856498866
 41
0.0
 71
     7
 72
     1
  1
\fTriplexExtrabold|b0|i0|c0|p34;\W1;Kal\U+00E9idoscope 6000
 73
     1
 44
1.0
  0
MTEXT
  5
2DD
330
1F
100
AcDbEntity
  8
Calque 1
 62
   179
420
  1842203
100
AcDbMText
 10
-107.9261277576569
 20
-174.5786063358296
 30
0.0
 40
2.87866856498866
 41
0.0
 71
     7
 72
     1
  1
\fTriplexLight|b0|i0|c0|p34;\W1;Kal\U+00E9idoscope 6000
 73
     1
 44
1.0
  0
INSERT
  5
2DF
330
1F
100
AcDbEntity
  8
Calque 1
100
AcDbBlockReference
  2
block 2
 10
0.0
 20
0.0
 30
0.0
  0
INSERT
  5
337
330
1F
100
AcDbEntity
  8
Calque 1
100
AcDbBlockReference
  2
block 11
 10
0.0
 20
0.0
 30
0.0
  0
INSERT
  5
38F
330
1F
100
AcDbEntity
  8
Calque 1
100
AcDbBlockReference
  2
block 20
 10
0.0
 20
0.0
 30
0.0
  0
INSERT
  5
3E7
330
1F
100
AcDbEntity
  8
Calque 1
100
AcDbBlockReference
  2
block 29
 10
0.0
 20
0.0
 30
0.0
  0
ENDSEC
  0
SECTION
  2
OBJECTS
  0
DICTIONARY
  5
C
330
0
100
AcDbDictionary
281
     1
  3
ACAD_GROUP
350
D
  3
ACAD_LAYOUT
350
1A
  3
ACAD_MLINESTYLE
350
17
  3
ACAD_PLOTSETTINGS
350
19
  3
ACAD_PLOTSTYLENAME
350
E
  3
ACAD_TABLESTYLE
350
44E
  3
ACAD_VISUALSTYLE
350
2A
  0
DICTIONARY
  5
D
102
{ACAD_REACTORS
330
C
102
}
330
C
100
AcDbDictionary
281
     1
  0
DICTIONARY
  5
1A
102
{ACAD_REACTORS
330
C
102
}
330
C
100
AcDbDictionary
281
     1
  3
Layout1
350
1E
  3
Layout2
350
26
  3
Model
350
22
  0
DICTIONARY
  5
17
102
{ACAD_REACTORS
330
C
102
}
330
C
100
AcDbDictionary
281
     1
  3
Standard
350
18
  0
DICTIONARY
  5
19
102
{ACAD_REACTORS
330
C
102
}
330
C
100
AcDbDictionary
281
     1
  0
ACDBDICTIONARYWDFLT
  5
E
102
{ACAD_REACTORS
330
C
102
}
330
C
100
AcDbDictionary
281
     1
  3
Normal
350
F
100
AcDbDictionaryWithDefault
340
F
  0
DICTIONARY
  5
44E
102
{ACAD_REACTORS
330
C
102
}
330
C
100
AcDbDictionary
281
     1
  0
DICTIONARY
  5
2A
102
{ACAD_REACTORS
330
C
102
}
330
C
100
AcDbDictionary
281
     1
  3
2dWireframe
350
2F
  3
3D Hidden
350
31
  3
3dWireframe
350
30
  3
Basic
350
32
  3
Brighten
350
36
  3
ColorChange
350
3A
  3
Conceptual
350
34
  3
Dim
350
35
  3
Facepattern
350
39
  3
Flat
350
2B
  3
FlatWithEdges
350
2C
  3
Gouraud
350
2D
  3
GouraudWithEdges
350
2E
  3
Linepattern
350
38
  3
Realistic
350
33
  3
Thicken
350
37
  0
LAYOUT
  5
1E
102
{ACAD_REACTORS
330
1A
102
}
330
1A
100
AcDbPlotSettings
  1

  2
none_device
  4

  6

 40
0.0
 41
0.0
 42
0.0
 43
0.0
 44
0.0
 45
0.0
 46
0.0
 47
0.0
 48
0.0
 49
0.0
140
0.0
141
0.0
142
1.0
143
1.0
 70
   688
 72
     0
 73
     0
 74
     5
  7

 75
    16
 76
     0
 77
     2
 78
   300
147
1.0
148
0.0
149
0.0
100
AcDbLayout
  1
Layout1
 70
     1
 71
     1
 10
0.0
 20
0.0
 11
12.0
 21
9.0
 12
0.0
 22
0.0
 32
0.0
 14
1.000000000000000E+20
 24
1.000000000000000E+20
 34
1.000000000000000E+20
 15
-1.000000000000000E+20
 25
-1.000000000000000E+20
 35
-1.000000000000000E+20
146
0.0
 13
0.0
 23
0.0
 33
0.0
 16
1.0
 26
0.0
 36
0.0
 17
0.0
 27
1.0
 37
0.0
 76
     0
330
1B
  0
LAYOUT
  5
26
102
{ACAD_REACTORS
330
1A
102
}
330
1A
100
AcDbPlotSettings
  1

  2
none_device
  4

  6

 40
0.0
 41
0.0
 42
0.0
 43
0.0
 44
0.0
 45
0.0
 46
0.0
 47
0.0
 48
0.0
 49
0.0
140
0.0
141
0.0
142
1.0
143
1.0
 70
   688
 72
     0
 73
     0
 74
     5
  7

 75
    16
 76
     0
 77
     2
 78
   300
147
1.0
148
0.0
149
0.0
100
AcDbLayout
  1
Layout2
 70
     1
 71
     2
 10
0.0
 20
0.0
 11
0.0
 21
0.0
 12
0.0
 22
0.0
 32
0.0
 14
0.0
 24
0.0
 34
0.0
 15
0.0
 25
0.0
 35
0.0
146
0.0
 13
0.0
 23
0.0
 33
0.0
 16
1.0
 26
0.0
 36
0.0
 17
0.0
 27
1.0
 37
0.0
 76
     0
330
23
  0
LAYOUT
  5
22
102
{ACAD_REACTORS
330
1A
102
}
330
1A
100
AcDbPlotSettings
  1

  2
none_device
  4

  6

 40
0.0
 41
0.0
 42
0.0
 43
0.0
 44
0.0
 45
0.0
 46
0.0
 47
0.0
 48
0.0
 49
0.0
140
0.0
141
0.0
142
1.0
143
1.0
 70
  1712
 72
     0
 73
     0
 74
     0
  7

 75
     0
 76
     0
 77
     2
 78
   300
147
1.0
148
0.0
149
0.0
100
AcDbLayout
  1
Model
 70
     1
 71
     0
 10
0.0
 20
0.0
 11
12.0
 21
9.0
 12
0.0
 22
0.0
 32
0.0
 14
1.000000000000000E+20
 24
1.000000000000000E+20
 34
1.000000000000000E+20
 15
-1.000000000000000E+20
 25
-1.000000000000000E+20
 35
-1.000000000000000E+20
146
0.0
 13
0.0
 23
0.0
 33
0.0
 16
1.0
 26
0.0
 36
0.0
 17
0.0
 27
1.0
 37
0.0
 76
     0
330
1F
331
29
  0
MLINESTYLE
  5
18
102
{ACAD_REACTORS
330
17
102
}
330
17
100
AcDbMlineStyle
  2
Standard
 70
     0
  3

 62
   256
 51
90.0
 52
90.0
 71
     2
 49
0.5
 62
   256
  6
BYLAYER
 49
-0.5
 62
   256
  6
BYLAYER
  0
ACDBPLACEHOLDER
  5
F
102
{ACAD_REACTORS
330
E
102
}
330
E
  0
VISUALSTYLE
  5
2F
102
{ACAD_REACTORS
330
2A
102
}
330
2A
100
AcDbVisualStyle
  2
2dWireframe
 70
     4
 71
     0
 72
     2
 73
     0
 90
        0
 40
-0.6
 41
-30.0
 62
     5
 63
     7
421
 16777215
 74
     1
 91
        4
 64
     7
 65
   257
 75
     1
175
     1
 42
1.0
 92
        0
 66
   257
 43
1.0
 76
     1
 77
     6
 78
     2
 67
     7
 79
     5
170
     0
171
     0
290
     0
174
     0
 93
        1
 44
0.0
173
     0
291
     0
 45
0.0
1001
ACAD
1000
AcDbSavedByObjectVersion
1070
     0
  0
VISUALSTYLE
  5
31
102
{ACAD_REACTORS
330
2A
102
}
330
2A
100
AcDbVisualStyle
  2
3D Hidden
 70
     6
 71
     1
 72
     2
 73
     2
 90
        0
 40
-0.6
 41
-30.0
 62
     5
 63
     7
421
 16777215
 74
     2
 91
        2
 64
     7
 65
   257
 75
     2
175
     1
 42
40.0
 92
        0
 66
   257
 43
1.0
 76
     1
 77
     6
 78
     2
 67
     7
 79
     3
170
     0
171
     0
290
     0
174
     0
 93
        1
 44
0.0
173
     0
291
     0
 45
0.0
1001
ACAD
1000
AcDbSavedByObjectVersion
1070
     0
  0
VISUALSTYLE
  5
30
102
{ACAD_REACTORS
330
2A
102
}
330
2A
100
AcDbVisualStyle
  2
3dWireframe
 70
     5
 71
     0
 72
     2
 73
     0
 90
        0
 40
-0.6
 41
-30.0
 62
     5
 63
     7
421
 16777215
 74
     1
 91
        4
 64
     7
 65
   257
 75
     1
175
     1
 42
1.0
 92
        0
 66
   257
 43
1.0
 76
     1
 77
     6
 78
     2
 67
     7
 79
     5
170
     0
171
     0
290
     0
174
     0
 93
        1
 44
0.0
173
     0
291
     0
 45
0.0
1001
ACAD
1000
AcDbSavedByObjectVersion
1070
     0
  0
VISUALSTYLE
  5
32
102
{ACAD_REACTORS
330
2A
102
}
330
2A
100
AcDbVisualStyle
  2
Basic
 70
     7
 71
     1
 72
     0
 73
     1
 90
        0
 40
-0.6
 41
-30.0
 62
     5
 63
     7
421
 16777215
 74
     0
 91
        4
 64
     7
 65
   257
 75
     1
175
     1
 42
1.0
 92
        8
 66
     7
 43
1.0
 76
     1
 77
     6
 78
     2
 67
     7
 79
     5
170
     0
171
     0
290
     0
174
     0
 93
        1
 44
0.0
173
     0
291
     1
 45
0.0
1001
ACAD
1000
AcDbSavedByObjectVersion
1070
     0
  0
VISUALSTYLE
  5
36
102
{ACAD_REACTORS
330
2A
102
}
330
2A
100
AcDbVisualStyle
  2
Brighten
 70
    12
 71
     2
 72
     2
 73
     0
 90
        0
 40
-0.6
 41
-30.0
 62
     5
 63
     7
421
 16777215
 74
     1
 91
        4
 64
     7
 65
   257
 75
     1
175
     1
 42
1.0
 92
        8
 66
     7
 43
1.0
 76
     1
 77
     6
 78
     2
 67
     7
 79
     5
170
     0
171
     0
290
     0
174
     0
 93
        1
 44
50.0
173
     0
291
     1
 45
0.0
1001
ACAD
1000
AcDbSavedByObjectVersion
1070
     0
  0
VISUALSTYLE
  5
3A
102
{ACAD_REACTORS
330
2A
102
}
330
2A
100
AcDbVisualStyle
  2
ColorChange
 70
    16
 71
     2
 72
     2
 73
     3
 90
        0
 40
-0.6
 41
-30.0
 62
     5
 63
     8
421
  8421504
 74
     1
 91
        4
 64
     7
 65
   257
 75
     1
175
     1
 42
1.0
 92
        8
 66
     8
424
  8421504
 43
1.0
 76
     1
 77
     6
 78
     2
 67
     7
 79
     5
170
     0
171
     0
290
     0
174
     0
 93
        1
 44
0.0
173
     0
291
     1
 45
0.0
1001
ACAD
1000
AcDbSavedByObjectVersion
1070
     0
  0
VISUALSTYLE
  5
34
102
{ACAD_REACTORS
330
2A
102
}
330
2A
100
AcDbVisualStyle
  2
Conceptual
 70
     9
 71
     3
 72
     2
 73
     0
 90
        0
 40
-0.6
 41
-30.0
 62
     5
 63
     7
421
 16777215
 74
     2
 91
        2
 64
     7
 65
   257
 75
     1
175
     1
 42
40.0
 92
        8
 66
     7
 43
1.0
 76
     1
 77
     6
 78
     2
 67
     7
 79
     3
170
     0
171
     0
290
     0
174
     0
 93
        1
 44
0.0
173
     0
291
     0
 45
0.0
1001
ACAD
1000
AcDbSavedByObjectVersion
1070
     0
  0
VISUALSTYLE
  5
35
102
{ACAD_REACTORS
330
2A
102
}
330
2A
100
AcDbVisualStyle
  2
Dim
 70
    11
 71
     2
 72
     2
 73
     0
 90
        0
 40
-0.6
 41
-30.0
 62
     5
 63
     7
421
 16777215
 74
     1
 91
        4
 64
     7
 65
   257
 75
     1
175
     1
 42
1.0
 92
        8
 66
     7
 43
1.0
 76
     1
 77
     6
 78
     2
 67
     7
 79
     5
170
     0
171
     0
290
     0
174
     0
 93
        1
 44
-50.0
173
     0
291
     1
 45
0.0
1001
ACAD
1000
AcDbSavedByObjectVersion
1070
     0
  0
VISUALSTYLE
  5
39
102
{ACAD_REACTORS
330
2A
102
}
330
2A
100
AcDbVisualStyle
  2
Facepattern
 70
    15
 71
     2
 72
     2
 73
     0
 90
        0
 40
-0.6
 41
-30.0
 62
     5
 63
     7
421
 16777215
 74
     1
 91
        4
 64
     7
 65
   257
 75
     1
175
     1
 42
1.0
 92
        8
 66
     7
 43
1.0
 76
     1
 77
     6
 78
     2
 67
     7
 79
     5
170
     0
171
     0
290
     0
174
     0
 93
        1
 44
0.0
173
     0
291
     1
 45
0.0
1001
ACAD
1000
AcDbSavedByObjectVersion
1070
     0
  0
VISUALSTYLE
  5
2B
102
{ACAD_REACTORS
330
2A
102
}
330
2A
100
AcDbVisualStyle
  2
Flat
 70
     0
 71
     2
 72
     1
 73
     1
 90
        2
 40
-0.6
 41
30.0
 62
     5
 63
     7
421
 16777215
 74
     0
 91
        4
 64
     7
 65
   257
 75
     1
175
     1
 42
1.0
 92
        8
 66
     7
 43
1.0
 76
     1
 77
     6
 78
     2
 67
     7
 79
     5
170
     0
171
     0
290
     0
174
     0
 93
       13
 44
0.0
173
     0
291
     1
 45
0.0
1001
ACAD
1000
AcDbSavedByObjectVersion
1070
     0
  0
VISUALSTYLE
  5
2C
102
{ACAD_REACTORS
330
2A
102
}
330
2A
100
AcDbVisualStyle
  2
FlatWithEdges
 70
     1
 71
     2
 72
     1
 73
     1
 90
        2
 40
-0.6
 41
30.0
 62
     5
 63
     7
421
 16777215
 74
     1
 91
        4
 64
     7
 65
   257
 75
     1
175
     1
 42
1.0
 92
        0
 66
   257
 43
1.0
 76
     1
 77
     6
 78
     2
 67
     7
 79
     5
170
     0
171
     0
290
     0
174
     0
 93
       13
 44
0.0
173
     0
291
     1
 45
0.0
1001
ACAD
1000
AcDbSavedByObjectVersion
1070
     0
  0
VISUALSTYLE
  5
2D
102
{ACAD_REACTORS
330
2A
102
}
330
2A
100
AcDbVisualStyle
  2
Gouraud
 70
     2
 71
     2
 72
     2
 73
     1
 90
        2
 40
-0.6
 41
30.0
 62
     5
 63
     7
421
 16777215
 74
     0
 91
        4
 64
     7
 65
   257
 75
     1
175
     1
 42
1.0
 92
        0
 66
     7
 43
1.0
 76
     1
 77
     6
 78
     2
 67
     7
 79
     5
170
     0
171
     0
290
     0
174
     0
 93
       13
 44
0.0
173
     0
291
     1
 45
0.0
1001
ACAD
1000
AcDbSavedByObjectVersion
1070
     0
  0
VISUALSTYLE
  5
2E
102
{ACAD_REACTORS
330
2A
102
}
330
2A
100
AcDbVisualStyle
  2
GouraudWithEdges
 70
     3
 71
     2
 72
     2
 73
     1
 90
        2
 40
-0.6
 41
30.0
 62
     5
 63
     7
421
 16777215
 74
     1
 91
        4
 64
     7
 65
   257
 75
     1
175
     1
 42
1.0
 92
        0
 66
   257
 43
1.0
 76
     1
 77
     6
 78
     2
 67
     7
 79
     5
170
     0
171
     0
290
     0
174
     0
 93
       13
 44
0.0
173
     0
291
     1
 45
0.0
1001
ACAD
1000
AcDbSavedByObjectVersion
1070
     0
  0
VISUALSTYLE
  5
38
102
{ACAD_REACTORS
330
2A
102
}
330
2A
100
AcDbVisualStyle
  2
Linepattern
 70
    14
 71
     2
 72
     2
 73
     0
 90
        0
 40
-0.6
 41
-30.0
 62
     5
 63
     7
421
 16777215
 74
     1
 91
        4
 64
     7
 65
   257
 75
     7
175
     7
 42
1.0
 92
        8
 66
     7
 43
1.0
 76
     1
 77
     6
 78
     2
 67
     7
 79
     5
170
     0
171
     0
290
     0
174
     0
 93
        1
 44
0.0
173
     0
291
     1
 45
0.0
1001
ACAD
1000
AcDbSavedByObjectVersion
1070
     0
  0
VISUALSTYLE
  5
33
102
{ACAD_REACTORS
330
2A
102
}
330
2A
100
AcDbVisualStyle
  2
Realistic
 70
     8
 71
     2
 72
     2
 73
     0
 90
        0
 40
-0.6
 41
-30.0
 62
     5
 63
     7
421
 16777215
 74
     1
 91
        0
 64
     7
 65
   257
 75
     1
175
     1
 42
1.0
 92
        8
 66
     8
424
  7895160
 43
1.0
 76
     1
 77
     6
 78
     2
 67
     7
 79
     5
170
     0
171
     0
290
     0
174
     0
 93
       13
 44
0.0
173
     0
291
     0
 45
0.0
1001
ACAD
1000
AcDbSavedByObjectVersion
1070
     0
  0
VISUALSTYLE
  5
37
102
{ACAD_REACTORS
330
2A
102
}
330
2A
100
AcDbVisualStyle
  2
Thicken
 70
    13
 71
     2
 72
     2
 73
     0
 90
        0
 40
-0.6
 41
-30.0
 62
     5
 63
     7
421
 16777215
 74
     1
 91
        4
 64
     7
 65
   257
 75
     1
175
     1
 42
1.0
 92
       12
 66
     7
 43
1.0
 76
     1
 77
     6
 78
     2
 67
     7
 79
     5
170
     0
171
     0
290
     0
174
     0
 93
        1
 44
0.0
173
     0
291
     1
 45
0.0
1001
ACAD
1000
AcDbSavedByObjectVersion
1070
     0
  0
ENDSEC
  0
EOF
