  0
SECTION
  2
HEADER
  9
$ACADVER
  1
AC1014
  9
$HANDSEED
  5
FFFF
  9
$MEASUREMENT
 70
     1
  0
ENDSEC
  0
SECTION
  2
TABLES
  0
TABLE
  2
VPORT
  5
8
330
0
100
AcDbSymbolTable
 70
     4
  0
VPORT
  5
2E
330
8
100
AcDbSymbolTableRecord
100
AcDbViewportTableRecord
  2
*ACTIVE
 70
     0
 10
0.0
 20
0.0
 11
1.0
 21
1.0
 12
210.0
 22
148.5
 13
0.0
 23
0.0
 14
10.0
 24
10.0
 15
10.0
 25
10.0
 16
0.0
 26
0.0
 36
1.0
 17
0.0
 27
0.0
 37
0.0
 40
341.0
 41
1.24
 42
50.0
 43
0.0
 44
0.0
 50
0.0
 51
0.0
 71
     0
 72
   100
 73
     1
 74
     3
 75
     0
 76
     0
 77
     0
 78
     0
  0
ENDTAB
  0
TABLE
  2
LTYPE
  5
5
330
0
100
AcDbSymbolTable
 70
     1
  0
LTYPE
  5
14
330
5
100
AcDbSymbolTableRecord
100
AcDbLinetypeTableRecord
  2
BYBLOCK
 70
     0
  3

 72
    65
 73
     0
 40
0.0
  0
LTYPE
  5
15
330
5
100
AcDbSymbolTableRecord
100
AcDbLinetypeTableRecord
  2
BYLAYER
 70
     0
  3

 72
    65
 73
     0
 40
0.0
  0
LTYPE
  5
16
330
5
100
AcDbSymbolTableRecord
100
AcDbLinetypeTableRecord
  2
CONTINUOUS
 70
     0
  3
Solid line
 72
    65
 73
     0
 40
0.0
  0
ENDTAB
  0
TABLE
  2
LAYER
  5
2
100
AcDbSymbolTable
 70
2
  0
LAYER
  5
50
100
AcDbSymbolTableRecord
100
AcDbLayerTableRecord
  2
0
 70
0
  6
CONTINUOUS
  0
LAYER
  5
51
100
AcDbSymbolTableRecord
100
AcDbLayerTableRecord
  2
Calque_1
 70
0
  6
CONTINUOUS
  0
ENDTAB
  0
TABLE
  2
STYLE
  5
3
330
0
100
AcDbSymbolTable
 70
     1
  0
STYLE
  5
11
330
3
100
AcDbSymbolTableRecord
100
AcDbTextStyleTableRecord
  2
STANDARD
 70
     0
 40
0.0
 41
1.0
 50
0.0
 71
     0
 42
2.5
  3
txt
  4

  0
ENDTAB
  0
TABLE
  2
VIEW
  5
6
330
0
100
AcDbSymbolTable
 70
     0
  0
ENDTAB
  0
TABLE
  2
UCS
  5
7
330
0
100
AcDbSymbolTable
 70
     0
  0
ENDTAB
  0
TABLE
  2
APPID
  5
9
330
0
100
AcDbSymbolTable
 70
     2
  0
APPID
  5
12
330
9
100
AcDbSymbolTableRecord
100
AcDbRegAppTableRecord
  2
ACAD
 70
     0
  0
ENDTAB
  0
TABLE
  2
DIMSTYLE
  5
A
330
0
100
AcDbSymbolTable
 70
     1
  0
DIMSTYLE
105
27
330
A
100
AcDbSymbolTableRecord
100
AcDbDimStyleTableRecord
  2
ISO-25
 70
     0
  3

  4

  5

  6

  7

 40
1.0
 41
2.5
 42
0.625
 43
3.75
 44
1.25
 45
0.0
 46
0.0
 47
0.0
 48
0.0
140
2.5
141
2.5
142
0.0
143
0.03937007874016
144
1.0
145
0.0
146
1.0
147
0.625
 71
     0
 72
     0
 73
     0
 74
     0
 75
     0
 76
     0
 77
     1
 78
     8
170
     0
171
     3
172
     1
173
     0
174
     0
175
     0
176
     0
177
     0
178
     0
270
     2
271
     2
272
     2
273
     2
274
     3
340
11
275
     0
280
     0
281
     0
282
     0
283
     0
284
     8
285
     0
286
     0
287
     3
288
     0
  0
ENDTAB
  0
TABLE
  2
BLOCK_RECORD
  5
1
330
0
100
AcDbSymbolTable
 70
     1
  0
BLOCK_RECORD
  5
1F
330
1
100
AcDbSymbolTableRecord
100
AcDbBlockTableRecord
  2
*MODEL_SPACE
  0
BLOCK_RECORD
  5
1B
330
1
100
AcDbSymbolTableRecord
100
AcDbBlockTableRecord
  2
*PAPER_SPACE
  0
ENDTAB
  0
ENDSEC
  0
SECTION
  2
BLOCKS
  0
BLOCK
  5
20
330
1F
100
AcDbEntity
  8
0
100
AcDbBlockBegin
  2
*MODEL_SPACE
 70
     0
 10
0.0
 20
0.0
 30
0.0
  3
*MODEL_SPACE
  1

  0
ENDBLK
  5
21
330
1F
100
AcDbEntity
  8
0
100
AcDbBlockEnd
  0
BLOCK
  5
1C
330
1B
100
AcDbEntity
 67
     1
  8
0
100
AcDbBlockBegin
  2
*PAPER_SPACE
  1

  0
ENDBLK
  5
1D
330
1B
100
AcDbEntity
 67
     1
  8
0
100
AcDbBlockEnd
  0
ENDSEC
  0
SECTION
  2
ENTITIES
  0
SPLINE
  5
100
100
AcDbEntity
  8
Calque_1
 62
7
100
AcDbSpline
 70
8
 71
3
 72
8
 73
4
 74
0
 40
0
 40
0
 40
0
 40
0
 40
1
 40
1
 40
1
 40
1
 10
74.860838
 20
356.084782
 30
0.0
 10
74.851200
 20
368.594048
 30
0.0
 10
68.600353
 20
380.201723
 30
0.0
 10
58.324139
 20
387.112589
 30
0.0
  0
SPLINE
  5
101
100
AcDbEntity
  8
Calque_1
 62
7
100
AcDbSpline
 70
8
 71
3
 72
8
 73
4
 74
0
 40
0
 40
0
 40
0
 40
0
 40
1
 40
1
 40
1
 40
1
 10
58.324139
 20
387.112589
 30
0.0
 10
57.524939
 20
387.650066
 30
0.0
 10
55.854482
 20
385.803380
 30
0.0
 10
55.854482
 20
385.803380
 30
0.0
  0
LINE
  5
102
100
AcDbEntity
  8
Calque_1
 62
7
100
AcDbLine
 10
55.854482
 20
385.803380
 30
0.0
 11
55.854482
 21
360.287147
 31
0.0
  0
LINE
  5
103
100
AcDbEntity
  8
Calque_1
 62
7
100
AcDbLine
 10
55.854482
 20
360.287147
 30
0.0
 11
37.429682
 21
347.847698
 31
0.0
  0
LINE
  5
104
100
AcDbEntity
  8
Calque_1
 62
7
100
AcDbLine
 10
37.429682
 20
347.847698
 30
0.0
 11
19.004882
 21
360.287147
 31
0.0
  0
LINE
  5
105
100
AcDbEntity
  8
Calque_1
 62
7
100
AcDbLine
 10
19.004882
 20
360.287147
 30
0.0
 11
19.004882
 21
385.777018
 31
0.0
  0
SPLINE
  5
106
100
AcDbEntity
  8
Calque_1
 62
7
100
AcDbSpline
 70
8
 71
3
 72
8
 73
4
 74
0
 40
0
 40
0
 40
0
 40
0
 40
1
 40
1
 40
1
 40
1
 10
19.004882
 20
385.777018
 30
0.0
 10
19.004882
 20
385.777018
 30
0.0
 10
16.734161
 20
387.246526
 30
0.0
 10
15.666718
 20
386.483950
 30
0.0
  0
SPLINE
  5
107
100
AcDbEntity
  8
Calque_1
 62
7
100
AcDbSpline
 70
8
 71
3
 72
8
 73
4
 74
0
 40
0
 40
0
 40
0
 40
0
 40
1
 40
1
 40
1
 40
1
 10
15.666718
 20
386.483950
 30
0.0
 10
5.915934
 20
379.518035
 30
0.0
 10
0.017631
 20
368.227896
 30
0.0
 10
0.000000
 20
356.084782
 30
0.0
  0
SPLINE
  5
108
100
AcDbEntity
  8
Calque_1
 62
7
100
AcDbSpline
 70
8
 71
3
 72
8
 73
4
 74
0
 40
0
 40
0
 40
0
 40
0
 40
1
 40
1
 40
1
 40
1
 10
0.000000
 20
356.084782
 30
0.0
 10
0.016668
 20
343.800476
 30
0.0
 10
15.036548
 20
337.613267
 30
0.0
 10
15.036548
 20
325.328933
 30
0.0
  0
LINE
  5
109
100
AcDbEntity
  8
Calque_1
 62
7
100
AcDbLine
 10
15.036548
 20
325.328933
 30
0.0
 11
15.036548
 21
44.786466
 31
0.0
  0
SPLINE
  5
10a
100
AcDbEntity
  8
Calque_1
 62
7
100
AcDbSpline
 70
8
 71
3
 72
8
 73
4
 74
0
 40
0
 40
0
 40
0
 40
0
 40
1
 40
1
 40
1
 40
1
 10
15.036548
 20
44.786466
 30
0.0
 10
15.036548
 20
37.231597
 30
0.0
 10
8.040387
 20
32.059077
 30
0.0
 10
8.036107
 20
24.504236
 30
0.0
  0
SPLINE
  5
10b
100
AcDbEntity
  8
Calque_1
 62
7
100
AcDbSpline
 70
8
 71
3
 72
8
 73
4
 74
0
 40
0
 40
0
 40
0
 40
0
 40
1
 40
1
 40
1
 40
1
 10
8.036107
 20
24.504236
 30
0.0
 10
8.037553
 20
14.637628
 30
0.0
 10
12.982620
 20
5.491474
 30
0.0
 10
21.094781
 20
0.070866
 30
0.0
  0
SPLINE
  5
10c
100
AcDbEntity
  8
Calque_1
 62
7
100
AcDbSpline
 70
8
 71
3
 72
8
 73
4
 74
0
 40
0
 40
0
 40
0
 40
0
 40
1
 40
1
 40
1
 40
1
 10
21.094781
 20
0.070866
 30
0.0
 10
21.792586
 20
-0.395405
 30
0.0
 10
23.257304
 20
1.591313
 30
0.0
 10
23.257304
 20
1.591313
 30
0.0
  0
LINE
  5
10d
100
AcDbEntity
  8
Calque_1
 62
7
100
AcDbLine
 10
23.257304
 20
1.591313
 30
0.0
 11
23.257304
 21
18.703446
 31
0.0
  0
LINE
  5
10e
100
AcDbEntity
  8
Calque_1
 62
7
100
AcDbLine
 10
23.257304
 20
18.703446
 30
0.0
 11
37.431128
 21
29.530120
 31
0.0
  0
LINE
  5
10f
100
AcDbEntity
  8
Calque_1
 62
7
100
AcDbLine
 10
37.431128
 20
29.530120
 30
0.0
 11
51.603506
 21
18.703446
 31
0.0
  0
LINE
  5
110
100
AcDbEntity
  8
Calque_1
 62
7
100
AcDbLine
 10
51.603506
 20
18.703446
 30
0.0
 11
51.603506
 21
1.623543
 31
0.0
  0
SPLINE
  5
111
100
AcDbEntity
  8
Calque_1
 62
7
100
AcDbSpline
 70
8
 71
3
 72
8
 73
4
 74
0
 40
0
 40
0
 40
0
 40
0
 40
1
 40
1
 40
1
 40
1
 10
51.603506
 20
1.623543
 30
0.0
 10
51.603506
 20
1.623543
 30
0.0
 10
53.103628
 20
-0.341745
 30
0.0
 10
53.817392
 20
0.137310
 30
0.0
  0
SPLINE
  5
112
100
AcDbEntity
  8
Calque_1
 62
7
100
AcDbSpline
 70
8
 71
3
 72
8
 73
4
 74
0
 40
0
 40
0
 40
0
 40
0
 40
1
 40
1
 40
1
 40
1
 10
53.817392
 20
0.137310
 30
0.0
 10
61.890321
 20
5.555594
 30
0.0
 10
66.813647
 20
14.669660
 30
0.0
 10
66.826148
 20
24.504236
 30
0.0
  0
SPLINE
  5
113
100
AcDbEntity
  8
Calque_1
 62
7
100
AcDbSpline
 70
8
 71
3
 72
8
 73
4
 74
0
 40
0
 40
0
 40
0
 40
0
 40
1
 40
1
 40
1
 40
1
 10
66.826148
 20
24.504236
 30
0.0
 10
66.812854
 20
32.047625
 30
0.0
 10
59.257361
 20
37.209345
 30
0.0
 10
59.257361
 20
44.752762
 30
0.0
  0
LINE
  5
114
100
AcDbEntity
  8
Calque_1
 62
7
100
AcDbLine
 10
59.257361
 20
44.752762
 30
0.0
 11
59.257361
 21
325.286442
 31
0.0
  0
SPLINE
  5
115
100
AcDbEntity
  8
Calque_1
 62
7
100
AcDbSpline
 70
8
 71
3
 72
8
 73
4
 74
0
 40
0
 40
0
 40
0
 40
0
 40
1
 40
1
 40
1
 40
1
 10
59.257361
 20
325.286442
 30
0.0
 10
59.257361
 20
337.585771
 30
0.0
 10
74.858117
 20
343.785455
 30
0.0
 10
74.860838
 20
356.084782
 30
0.0
  0
LINE
  5
116
100
AcDbEntity
  8
Calque_1
 62
7
100
AcDbLine
 10
74.860838
 20
356.084782
 30
0.0
 11
74.860838
 21
356.084782
 31
0.0
  0
SPLINE
  5
117
100
AcDbEntity
  8
Calque_1
 62
7
100
AcDbSpline
 70
8
 71
3
 72
8
 73
4
 74
0
 40
0
 40
0
 40
0
 40
0
 40
1
 40
1
 40
1
 40
1
 10
56.058094
 20
44.104932
 30
0.0
 10
59.198882
 20
44.104932
 30
0.0
 10
61.727046
 20
45.304243
 30
0.0
 10
61.727046
 20
46.794359
 30
0.0
  0
LINE
  5
118
100
AcDbEntity
  8
Calque_1
 62
7
100
AcDbLine
 10
61.727046
 20
46.794359
 30
0.0
 11
61.727046
 21
83.935474
 31
0.0
  0
SPLINE
  5
119
100
AcDbEntity
  8
Calque_1
 62
7
100
AcDbSpline
 70
8
 71
3
 72
8
 73
4
 74
0
 40
0
 40
0
 40
0
 40
0
 40
1
 40
1
 40
1
 40
1
 10
61.727046
 20
83.935474
 30
0.0
 10
61.727046
 20
85.425506
 30
0.0
 10
59.198882
 20
86.624901
 30
0.0
 10
56.058094
 20
86.624901
 30
0.0
  0
LINE
  5
11a
100
AcDbEntity
  8
Calque_1
 62
7
100
AcDbLine
 10
56.058094
 20
86.624901
 30
0.0
 11
18.802715
 21
86.624901
 31
0.0
  0
SPLINE
  5
11b
100
AcDbEntity
  8
Calque_1
 62
7
100
AcDbSpline
 70
8
 71
3
 72
8
 73
4
 74
0
 40
0
 40
0
 40
0
 40
0
 40
1
 40
1
 40
1
 40
1
 10
18.802715
 20
86.624901
 30
0.0
 10
15.661928
 20
86.624901
 30
0.0
 10
13.133764
 20
85.425506
 30
0.0
 10
13.133764
 20
83.935474
 30
0.0
  0
LINE
  5
11c
100
AcDbEntity
  8
Calque_1
 62
7
100
AcDbLine
 10
13.133764
 20
83.935474
 30
0.0
 11
13.133764
 21
46.794359
 31
0.0
  0
SPLINE
  5
11d
100
AcDbEntity
  8
Calque_1
 62
7
100
AcDbSpline
 70
8
 71
3
 72
8
 73
4
 74
0
 40
0
 40
0
 40
0
 40
0
 40
1
 40
1
 40
1
 40
1
 10
13.133764
 20
46.794359
 30
0.0
 10
13.133764
 20
45.304243
 30
0.0
 10
15.661928
 20
44.104932
 30
0.0
 10
18.802715
 20
44.104932
 30
0.0
  0
LINE
  5
11e
100
AcDbEntity
  8
Calque_1
 62
7
100
AcDbLine
 10
18.802715
 20
44.104932
 30
0.0
 11
56.058094
 21
44.104932
 31
0.0
  0
SPLINE
  5
11f
100
AcDbEntity
  8
Calque_1
 62
7
100
AcDbSpline
 70
8
 71
3
 72
8
 73
4
 74
0
 40
0
 40
0
 40
0
 40
0
 40
1
 40
1
 40
1
 40
1
 10
27.968230
 20
54.020438
 30
0.0
 10
25.097159
 20
54.020438
 30
0.0
 10
22.880353
 20
55.006781
 30
0.0
 10
21.317868
 20
56.979411
 30
0.0
  0
SPLINE
  5
120
100
AcDbEntity
  8
Calque_1
 62
7
100
AcDbSpline
 70
8
 71
3
 72
8
 73
4
 74
0
 40
0
 40
0
 40
0
 40
0
 40
1
 40
1
 40
1
 40
1
 10
21.317868
 20
56.979411
 30
0.0
 10
19.755354
 20
58.942318
 30
0.0
 10
18.974098
 20
61.740113
 30
0.0
 10
18.974098
 20
65.372967
 30
0.0
  0
SPLINE
  5
121
100
AcDbEntity
  8
Calque_1
 62
7
100
AcDbSpline
 70
8
 71
3
 72
8
 73
4
 74
0
 40
0
 40
0
 40
0
 40
0
 40
1
 40
1
 40
1
 40
1
 10
18.974098
 20
65.372967
 30
0.0
 10
18.974098
 20
68.995984
 30
0.0
 10
19.755354
 20
71.793865
 30
0.0
 10
21.317868
 20
73.766523
 30
0.0
  0
SPLINE
  5
122
100
AcDbEntity
  8
Calque_1
 62
7
100
AcDbSpline
 70
8
 71
3
 72
8
 73
4
 74
0
 40
0
 40
0
 40
0
 40
0
 40
1
 40
1
 40
1
 40
1
 10
21.317868
 20
73.766523
 30
0.0
 10
22.880353
 20
75.729430
 30
0.0
 10
25.097159
 20
76.710869
 30
0.0
 10
27.968230
 20
76.710869
 30
0.0
  0
SPLINE
  5
123
100
AcDbEntity
  8
Calque_1
 62
7
100
AcDbSpline
 70
8
 71
3
 72
8
 73
4
 74
0
 40
0
 40
0
 40
0
 40
0
 40
1
 40
1
 40
1
 40
1
 10
27.968230
 20
76.710869
 30
0.0
 10
30.849109
 20
76.710869
 30
0.0
 10
33.070791
 20
75.729430
 30
0.0
 10
34.633276
 20
73.766523
 30
0.0
  0
SPLINE
  5
124
100
AcDbEntity
  8
Calque_1
 62
7
100
AcDbSpline
 70
8
 71
3
 72
8
 73
4
 74
0
 40
0
 40
0
 40
0
 40
0
 40
1
 40
1
 40
1
 40
1
 10
34.633276
 20
73.766523
 30
0.0
 10
36.195789
 20
71.793865
 30
0.0
 10
36.977046
 20
68.995984
 30
0.0
 10
36.977046
 20
65.372967
 30
0.0
  0
SPLINE
  5
125
100
AcDbEntity
  8
Calque_1
 62
7
100
AcDbSpline
 70
8
 71
3
 72
8
 73
4
 74
0
 40
0
 40
0
 40
0
 40
0
 40
1
 40
1
 40
1
 40
1
 10
36.977046
 20
65.372967
 30
0.0
 10
36.977046
 20
61.740113
 30
0.0
 10
36.195789
 20
58.942318
 30
0.0
 10
34.633276
 20
56.979411
 30
0.0
  0
SPLINE
  5
126
100
AcDbEntity
  8
Calque_1
 62
7
100
AcDbSpline
 70
8
 71
3
 72
8
 73
4
 74
0
 40
0
 40
0
 40
0
 40
0
 40
1
 40
1
 40
1
 40
1
 10
34.633276
 20
56.979411
 30
0.0
 10
33.070791
 20
55.006781
 30
0.0
 10
30.849109
 20
54.020438
 30
0.0
 10
27.968230
 20
54.020438
 30
0.0
  0
LINE
  5
127
100
AcDbEntity
  8
Calque_1
 62
7
100
AcDbLine
 10
27.968230
 20
54.020438
 30
0.0
 11
27.968230
 21
54.020438
 31
0.0
  0
LINE
  5
128
100
AcDbEntity
  8
Calque_1
 62
7
100
AcDbLine
 10
50.805156
 20
54.415928
 30
0.0
 11
45.443820
 21
54.415928
 31
0.0
  0
LINE
  5
129
100
AcDbEntity
  8
Calque_1
 62
7
100
AcDbLine
 10
45.443820
 20
54.415928
 30
0.0
 11
45.443820
 21
72.389594
 31
0.0
  0
LINE
  5
12a
100
AcDbEntity
  8
Calque_1
 62
7
100
AcDbLine
 10
45.443820
 20
72.389594
 30
0.0
 11
40.463376
 21
72.389594
 31
0.0
  0
LINE
  5
12b
100
AcDbEntity
  8
Calque_1
 62
7
100
AcDbLine
 10
40.463376
 20
72.389594
 30
0.0
 11
40.463376
 21
76.286069
 31
0.0
  0
LINE
  5
12c
100
AcDbEntity
  8
Calque_1
 62
7
100
AcDbLine
 10
40.463376
 20
76.286069
 30
0.0
 11
55.756318
 21
76.286069
 31
0.0
  0
LINE
  5
12d
100
AcDbEntity
  8
Calque_1
 62
7
100
AcDbLine
 10
55.756318
 20
76.286069
 30
0.0
 11
55.756318
 21
72.389594
 31
0.0
  0
LINE
  5
12e
100
AcDbEntity
  8
Calque_1
 62
7
100
AcDbLine
 10
55.756318
 20
72.389594
 30
0.0
 11
50.775874
 21
72.389594
 31
0.0
  0
LINE
  5
12f
100
AcDbEntity
  8
Calque_1
 62
7
100
AcDbLine
 10
50.775874
 20
72.389594
 30
0.0
 11
50.775874
 21
58.253811
 31
0.0
  0
LINE
  5
130
100
AcDbEntity
  8
Calque_1
 62
7
100
AcDbLine
 10
50.775874
 20
58.253811
 30
0.0
 11
55.888157
 21
59.308554
 31
0.0
  0
LINE
  5
131
100
AcDbEntity
  8
Calque_1
 62
7
100
AcDbLine
 10
55.888157
 20
59.308554
 30
0.0
 11
55.888157
 21
55.470643
 31
0.0
  0
LINE
  5
132
100
AcDbEntity
  8
Calque_1
 62
7
100
AcDbLine
 10
55.888157
 20
55.470643
 30
0.0
 11
50.805156
 21
54.415928
 31
0.0
  0
SPLINE
  5
133
100
AcDbEntity
  8
Calque_1
 62
7
100
AcDbSpline
 70
8
 71
3
 72
8
 73
4
 74
0
 40
0
 40
0
 40
0
 40
0
 40
1
 40
1
 40
1
 40
1
 10
27.968230
 20
57.872976
 30
0.0
 10
29.179191
 20
57.872976
 30
0.0
 10
30.043446
 20
58.434491
 30
0.0
 10
30.561024
 20
59.557550
 30
0.0
  0
SPLINE
  5
134
100
AcDbEntity
  8
Calque_1
 62
7
100
AcDbSpline
 70
8
 71
3
 72
8
 73
4
 74
0
 40
0
 40
0
 40
0
 40
0
 40
1
 40
1
 40
1
 40
1
 10
30.561024
 20
59.557550
 30
0.0
 10
31.078602
 20
60.670857
 30
0.0
 10
31.337376
 20
62.594674
 30
0.0
 10
31.337376
 20
65.329030
 30
0.0
  0
SPLINE
  5
135
100
AcDbEntity
  8
Calque_1
 62
7
100
AcDbSpline
 70
8
 71
3
 72
8
 73
4
 74
0
 40
0
 40
0
 40
0
 40
0
 40
1
 40
1
 40
1
 40
1
 10
31.337376
 20
65.329030
 30
0.0
 10
31.337376
 20
68.092696
 30
0.0
 10
31.078602
 20
70.040891
 30
0.0
 10
30.561024
 20
71.173757
 30
0.0
  0
SPLINE
  5
136
100
AcDbEntity
  8
Calque_1
 62
7
100
AcDbSpline
 70
8
 71
3
 72
8
 73
4
 74
0
 40
0
 40
0
 40
0
 40
0
 40
1
 40
1
 40
1
 40
1
 10
30.561024
 20
71.173757
 30
0.0
 10
30.043446
 20
72.306567
 30
0.0
 10
29.179191
 20
72.872957
 30
0.0
 10
27.968230
 20
72.872957
 30
0.0
  0
SPLINE
  5
137
100
AcDbEntity
  8
Calque_1
 62
7
100
AcDbSpline
 70
8
 71
3
 72
8
 73
4
 74
0
 40
0
 40
0
 40
0
 40
0
 40
1
 40
1
 40
1
 40
1
 10
27.968230
 20
72.872957
 30
0.0
 10
26.767077
 20
72.872957
 30
0.0
 10
25.907698
 20
72.306567
 30
0.0
 10
25.390120
 20
71.173757
 30
0.0
  0
SPLINE
  5
138
100
AcDbEntity
  8
Calque_1
 62
7
100
AcDbSpline
 70
8
 71
3
 72
8
 73
4
 74
0
 40
0
 40
0
 40
0
 40
0
 40
1
 40
1
 40
1
 40
1
 10
25.390120
 20
71.173757
 30
0.0
 10
24.872542
 20
70.040891
 30
0.0
 10
24.613767
 20
68.092696
 30
0.0
 10
24.613767
 20
65.329030
 30
0.0
  0
SPLINE
  5
139
100
AcDbEntity
  8
Calque_1
 62
7
100
AcDbSpline
 70
8
 71
3
 72
8
 73
4
 74
0
 40
0
 40
0
 40
0
 40
0
 40
1
 40
1
 40
1
 40
1
 10
24.613767
 20
65.329030
 30
0.0
 10
24.613767
 20
62.594674
 30
0.0
 10
24.872542
 20
60.670857
 30
0.0
 10
25.390120
 20
59.557550
 30
0.0
  0
SPLINE
  5
13a
100
AcDbEntity
  8
Calque_1
 62
7
100
AcDbSpline
 70
8
 71
3
 72
8
 73
4
 74
0
 40
0
 40
0
 40
0
 40
0
 40
1
 40
1
 40
1
 40
1
 10
25.390120
 20
59.557550
 30
0.0
 10
25.897946
 20
58.434491
 30
0.0
 10
26.757298
 20
57.872976
 30
0.0
 10
27.968230
 20
57.872976
 30
0.0
  0
LINE
  5
13b
100
AcDbEntity
  8
Calque_1
 62
7
100
AcDbLine
 10
27.968230
 20
57.872976
 30
0.0
 11
27.968230
 21
57.872976
 31
0.0
  0
SPLINE
  5
13c
100
AcDbEntity
  8
Calque_1
 62
7
100
AcDbSpline
 70
8
 71
3
 72
8
 73
4
 74
0
 40
0
 40
0
 40
0
 40
0
 40
1
 40
1
 40
1
 40
1
 10
18.802715
 20
327.963878
 30
0.0
 10
15.661928
 20
327.963878
 30
0.0
 10
13.133764
 20
326.764454
 30
0.0
 10
13.133764
 20
325.274366
 30
0.0
  0
LINE
  5
13d
100
AcDbEntity
  8
Calque_1
 62
7
100
AcDbLine
 10
13.133764
 20
325.274366
 30
0.0
 11
13.133764
 21
288.133248
 31
0.0
  0
SPLINE
  5
13e
100
AcDbEntity
  8
Calque_1
 62
7
100
AcDbSpline
 70
8
 71
3
 72
8
 73
4
 74
0
 40
0
 40
0
 40
0
 40
0
 40
1
 40
1
 40
1
 40
1
 10
13.133764
 20
288.133248
 30
0.0
 10
13.133764
 20
286.643222
 30
0.0
 10
15.661928
 20
285.443824
 30
0.0
 10
18.802715
 20
285.443824
 30
0.0
  0
LINE
  5
13f
100
AcDbEntity
  8
Calque_1
 62
7
100
AcDbLine
 10
18.802715
 20
285.443824
 30
0.0
 11
56.058094
 21
285.443824
 31
0.0
  0
SPLINE
  5
140
100
AcDbEntity
  8
Calque_1
 62
7
100
AcDbSpline
 70
8
 71
3
 72
8
 73
4
 74
0
 40
0
 40
0
 40
0
 40
0
 40
1
 40
1
 40
1
 40
1
 10
56.058094
 20
285.443824
 30
0.0
 10
59.198882
 20
285.443824
 30
0.0
 10
61.727046
 20
286.643222
 30
0.0
 10
61.727046
 20
288.133248
 30
0.0
  0
LINE
  5
141
100
AcDbEntity
  8
Calque_1
 62
7
100
AcDbLine
 10
61.727046
 20
288.133248
 30
0.0
 11
61.727046
 21
325.274366
 31
0.0
  0
SPLINE
  5
142
100
AcDbEntity
  8
Calque_1
 62
7
100
AcDbSpline
 70
8
 71
3
 72
8
 73
4
 74
0
 40
0
 40
0
 40
0
 40
0
 40
1
 40
1
 40
1
 40
1
 10
61.727046
 20
325.274366
 30
0.0
 10
61.727046
 20
326.764454
 30
0.0
 10
59.198882
 20
327.963878
 30
0.0
 10
56.058094
 20
327.963878
 30
0.0
  0
LINE
  5
143
100
AcDbEntity
  8
Calque_1
 62
7
100
AcDbLine
 10
56.058094
 20
327.963878
 30
0.0
 11
18.802715
 21
327.963878
 31
0.0
  0
SPLINE
  5
144
100
AcDbEntity
  8
Calque_1
 62
7
100
AcDbSpline
 70
8
 71
3
 72
8
 73
4
 74
0
 40
0
 40
0
 40
0
 40
0
 40
1
 40
1
 40
1
 40
1
 10
46.403320
 20
318.049761
 30
0.0
 10
49.245109
 20
318.049761
 30
0.0
 10
51.369137
 20
317.581024
 30
0.0
 10
52.775376
 20
316.643522
 30
0.0
  0
SPLINE
  5
145
100
AcDbEntity
  8
Calque_1
 62
7
100
AcDbSpline
 70
8
 71
3
 72
8
 73
4
 74
0
 40
0
 40
0
 40
0
 40
0
 40
1
 40
1
 40
1
 40
1
 10
52.775376
 20
316.643522
 30
0.0
 10
54.191395
 20
315.715771
 30
0.0
 10
54.899405
 20
314.314379
 30
0.0
 10
54.899405
 20
312.439402
 30
0.0
  0
SPLINE
  5
146
100
AcDbEntity
  8
Calque_1
 62
7
100
AcDbSpline
 70
8
 71
3
 72
8
 73
4
 74
0
 40
0
 40
0
 40
0
 40
0
 40
1
 40
1
 40
1
 40
1
 10
54.899405
 20
312.439402
 30
0.0
 10
54.899405
 20
311.160132
 30
0.0
 10
54.562479
 20
310.110350
 30
0.0
 10
53.888655
 20
309.289997
 30
0.0
  0
SPLINE
  5
147
100
AcDbEntity
  8
Calque_1
 62
7
100
AcDbSpline
 70
8
 71
3
 72
8
 73
4
 74
0
 40
0
 40
0
 40
0
 40
0
 40
1
 40
1
 40
1
 40
1
 10
53.888655
 20
309.289997
 30
0.0
 10
53.214831
 20
308.479459
 30
0.0
 10
52.218737
 20
307.908190
 30
0.0
 10
50.900372
 20
307.576174
 30
0.0
  0
SPLINE
  5
148
100
AcDbEntity
  8
Calque_1
 62
7
100
AcDbSpline
 70
8
 71
3
 72
8
 73
4
 74
0
 40
0
 40
0
 40
0
 40
0
 40
1
 40
1
 40
1
 40
1
 10
50.900372
 20
307.576174
 30
0.0
 10
52.374983
 20
307.195308
 30
0.0
 10
53.493137
 20
306.531176
 30
0.0
 10
54.254863
 20
305.583956
 30
0.0
  0
SPLINE
  5
149
100
AcDbEntity
  8
Calque_1
 62
7
100
AcDbSpline
 70
8
 71
3
 72
8
 73
4
 74
0
 40
0
 40
0
 40
0
 40
0
 40
1
 40
1
 40
1
 40
1
 10
54.254863
 20
305.583956
 30
0.0
 10
55.026340
 20
304.646448
 30
0.0
 10
55.412107
 20
303.450205
 30
0.0
 10
55.412107
 20
301.995125
 30
0.0
  0
SPLINE
  5
14a
100
AcDbEntity
  8
Calque_1
 62
7
100
AcDbSpline
 70
8
 71
3
 72
8
 73
4
 74
0
 40
0
 40
0
 40
0
 40
0
 40
1
 40
1
 40
1
 40
1
 10
55.412107
 20
301.995125
 30
0.0
 10
55.412107
 20
299.827097
 30
0.0
 10
54.582009
 20
298.176715
 30
0.0
 10
52.921871
 20
297.043900
 30
0.0
  0
SPLINE
  5
14b
100
AcDbEntity
  8
Calque_1
 62
7
100
AcDbSpline
 70
8
 71
3
 72
8
 73
4
 74
0
 40
0
 40
0
 40
0
 40
0
 40
1
 40
1
 40
1
 40
1
 10
52.921871
 20
297.043900
 30
0.0
 10
51.261704
 20
295.920873
 30
0.0
 10
48.839839
 20
295.359333
 30
0.0
 10
45.656220
 20
295.359333
 30
0.0
  0
SPLINE
  5
14c
100
AcDbEntity
  8
Calque_1
 62
7
100
AcDbSpline
 70
8
 71
3
 72
8
 73
4
 74
0
 40
0
 40
0
 40
0
 40
0
 40
1
 40
1
 40
1
 40
1
 10
45.656220
 20
295.359333
 30
0.0
 10
44.533191
 20
295.359333
 30
0.0
 10
43.405257
 20
295.452108
 30
0.0
 10
42.272447
 20
295.637666
 30
0.0
  0
SPLINE
  5
14d
100
AcDbEntity
  8
Calque_1
 62
7
100
AcDbSpline
 70
8
 71
3
 72
8
 73
4
 74
0
 40
0
 40
0
 40
0
 40
0
 40
1
 40
1
 40
1
 40
1
 10
42.272447
 20
295.637666
 30
0.0
 10
41.149389
 20
295.813466
 30
0.0
 10
40.036110
 20
296.081966
 30
0.0
 10
38.932611
 20
296.443332
 30
0.0
  0
LINE
  5
14e
100
AcDbEntity
  8
Calque_1
 62
7
100
AcDbLine
 10
38.932611
 20
296.443332
 30
0.0
 11
38.932611
 21
300.793915
 31
0.0
  0
SPLINE
  5
14f
100
AcDbEntity
  8
Calque_1
 62
7
100
AcDbSpline
 70
8
 71
3
 72
8
 73
4
 74
0
 40
0
 40
0
 40
0
 40
0
 40
1
 40
1
 40
1
 40
1
 10
38.932611
 20
300.793915
 30
0.0
 10
39.987298
 20
300.266583
 30
0.0
 10
41.032205
 20
299.866158
 30
0.0
 10
42.067361
 20
299.592700
 30
0.0
  0
SPLINE
  5
150
100
AcDbEntity
  8
Calque_1
 62
7
100
AcDbSpline
 70
8
 71
3
 72
8
 73
4
 74
0
 40
0
 40
0
 40
0
 40
0
 40
1
 40
1
 40
1
 40
1
 10
42.067361
 20
299.592700
 30
0.0
 10
43.112296
 20
299.329084
 30
0.0
 10
44.137672
 20
299.197242
 30
0.0
 10
45.143546
 20
299.197242
 30
0.0
  0
SPLINE
  5
151
100
AcDbEntity
  8
Calque_1
 62
7
100
AcDbSpline
 70
8
 71
3
 72
8
 73
4
 74
0
 40
0
 40
0
 40
0
 40
0
 40
1
 40
1
 40
1
 40
1
 10
45.143546
 20
299.197242
 30
0.0
 10
46.637688
 20
299.197242
 30
0.0
 10
47.780249
 20
299.455991
 30
0.0
 10
48.571285
 20
299.973566
 30
0.0
  0
SPLINE
  5
152
100
AcDbEntity
  8
Calque_1
 62
7
100
AcDbSpline
 70
8
 71
3
 72
8
 73
4
 74
0
 40
0
 40
0
 40
0
 40
0
 40
1
 40
1
 40
1
 40
1
 10
48.571285
 20
299.973566
 30
0.0
 10
49.372044
 20
300.491232
 30
0.0
 10
49.772438
 20
301.233342
 30
0.0
 10
49.772438
 20
302.200180
 30
0.0
  0
SPLINE
  5
153
100
AcDbEntity
  8
Calque_1
 62
7
100
AcDbSpline
 70
8
 71
3
 72
8
 73
4
 74
0
 40
0
 40
0
 40
0
 40
0
 40
1
 40
1
 40
1
 40
1
 10
49.772438
 20
302.200180
 30
0.0
 10
49.772438
 20
303.196249
 30
0.0
 10
49.362293
 20
303.948190
 30
0.0
 10
48.541975
 20
304.456022
 30
0.0
  0
SPLINE
  5
154
100
AcDbEntity
  8
Calque_1
 62
7
100
AcDbSpline
 70
8
 71
3
 72
8
 73
4
 74
0
 40
0
 40
0
 40
0
 40
0
 40
1
 40
1
 40
1
 40
1
 10
48.541975
 20
304.456022
 30
0.0
 10
47.731436
 20
304.973597
 30
0.0
 10
46.530255
 20
305.232432
 30
0.0
 10
44.938460
 20
305.232432
 30
0.0
  0
LINE
  5
155
100
AcDbEntity
  8
Calque_1
 62
7
100
AcDbLine
 10
44.938460
 20
305.232432
 30
0.0
 11
42.682592
 21
305.232432
 31
0.0
  0
LINE
  5
156
100
AcDbEntity
  8
Calque_1
 62
7
100
AcDbLine
 10
42.682592
 20
305.232432
 30
0.0
 11
42.682592
 21
308.865197
 31
0.0
  0
LINE
  5
157
100
AcDbEntity
  8
Calque_1
 62
7
100
AcDbLine
 10
42.682592
 20
308.865197
 30
0.0
 11
45.055644
 21
308.865197
 31
0.0
  0
SPLINE
  5
158
100
AcDbEntity
  8
Calque_1
 62
7
100
AcDbSpline
 70
8
 71
3
 72
8
 73
4
 74
0
 40
0
 40
0
 40
0
 40
0
 40
1
 40
1
 40
1
 40
1
 10
45.055644
 20
308.865197
 30
0.0
 10
46.471663
 20
308.865197
 30
0.0
 10
47.526350
 20
309.084942
 30
0.0
 10
48.219704
 20
309.524366
 30
0.0
  0
SPLINE
  5
159
100
AcDbEntity
  8
Calque_1
 62
7
100
AcDbSpline
 70
8
 71
3
 72
8
 73
4
 74
0
 40
0
 40
0
 40
0
 40
0
 40
1
 40
1
 40
1
 40
1
 10
48.219704
 20
309.524366
 30
0.0
 10
48.913058
 20
309.973632
 30
0.0
 10
49.259764
 20
310.652297
 30
0.0
 10
49.259764
 20
311.560549
 30
0.0
  0
SPLINE
  5
15a
100
AcDbEntity
  8
Calque_1
 62
7
100
AcDbSpline
 70
8
 71
3
 72
8
 73
4
 74
0
 40
0
 40
0
 40
0
 40
0
 40
1
 40
1
 40
1
 40
1
 10
49.259764
 20
311.560549
 30
0.0
 10
49.259764
 20
312.400397
 30
0.0
 10
48.922838
 20
313.049730
 30
0.0
 10
48.249014
 20
313.508744
 30
0.0
  0
SPLINE
  5
15b
100
AcDbEntity
  8
Calque_1
 62
7
100
AcDbSpline
 70
8
 71
3
 72
8
 73
4
 74
0
 40
0
 40
0
 40
0
 40
0
 40
1
 40
1
 40
1
 40
1
 10
48.249014
 20
313.508744
 30
0.0
 10
47.575191
 20
313.967730
 30
0.0
 10
46.623033
 20
314.197251
 30
0.0
 10
45.392570
 20
314.197251
 30
0.0
  0
SPLINE
  5
15c
100
AcDbEntity
  8
Calque_1
 62
7
100
AcDbSpline
 70
8
 71
3
 72
8
 73
4
 74
0
 40
0
 40
0
 40
0
 40
0
 40
1
 40
1
 40
1
 40
1
 10
45.392570
 20
314.197251
 30
0.0
 10
44.484350
 20
314.197251
 30
0.0
 10
43.566406
 20
314.094722
 30
0.0
 10
42.638655
 20
313.889579
 30
0.0
  0
SPLINE
  5
15d
100
AcDbEntity
  8
Calque_1
 62
7
100
AcDbSpline
 70
8
 71
3
 72
8
 73
4
 74
0
 40
0
 40
0
 40
0
 40
0
 40
1
 40
1
 40
1
 40
1
 10
42.638655
 20
313.889579
 30
0.0
 10
41.710932
 20
313.684549
 30
0.0
 10
40.788085
 20
313.381837
 30
0.0
 10
39.870113
 20
312.981415
 30
0.0
  0
LINE
  5
15e
100
AcDbEntity
  8
Calque_1
 62
7
100
AcDbLine
 10
39.870113
 20
312.981415
 30
0.0
 11
39.870113
 21
317.112259
 31
0.0
  0
SPLINE
  5
15f
100
AcDbEntity
  8
Calque_1
 62
7
100
AcDbSpline
 70
8
 71
3
 72
8
 73
4
 74
0
 40
0
 40
0
 40
0
 40
0
 40
1
 40
1
 40
1
 40
1
 10
39.870113
 20
317.112259
 30
0.0
 10
40.983392
 20
317.424779
 30
0.0
 10
42.086891
 20
317.659175
 30
0.0
 10
43.180639
 20
317.815393
 30
0.0
  0
SPLINE
  5
160
100
AcDbEntity
  8
Calque_1
 62
7
100
AcDbSpline
 70
8
 71
3
 72
8
 73
4
 74
0
 40
0
 40
0
 40
0
 40
0
 40
1
 40
1
 40
1
 40
1
 10
43.180639
 20
317.815393
 30
0.0
 10
44.274416
 20
317.971610
 30
0.0
 10
45.348633
 20
318.049761
 30
0.0
 10
46.403320
 20
318.049761
 30
0.0
  0
LINE
  5
161
100
AcDbEntity
  8
Calque_1
 62
7
100
AcDbLine
 10
46.403320
 20
318.049761
 30
0.0
 11
46.403320
 21
318.049761
 31
0.0
  0
LINE
  5
162
100
AcDbEntity
  8
Calque_1
 62
7
100
AcDbLine
 10
24.533178
 20
317.654300
 30
0.0
 11
29.894513
 21
317.654300
 31
0.0
  0
LINE
  5
163
100
AcDbEntity
  8
Calque_1
 62
7
100
AcDbLine
 10
29.894513
 20
317.654300
 30
0.0
 11
29.894513
 21
299.680608
 31
0.0
  0
LINE
  5
164
100
AcDbEntity
  8
Calque_1
 62
7
100
AcDbLine
 10
29.894513
 20
299.680608
 30
0.0
 11
34.874986
 21
299.680608
 31
0.0
  0
LINE
  5
165
100
AcDbEntity
  8
Calque_1
 62
7
100
AcDbLine
 10
34.874986
 20
299.680608
 30
0.0
 11
34.874986
 21
295.784133
 31
0.0
  0
LINE
  5
166
100
AcDbEntity
  8
Calque_1
 62
7
100
AcDbLine
 10
34.874986
 20
295.784133
 30
0.0
 11
19.582016
 21
295.784133
 31
0.0
  0
LINE
  5
167
100
AcDbEntity
  8
Calque_1
 62
7
100
AcDbLine
 10
19.582016
 20
295.784133
 30
0.0
 11
19.582016
 21
299.680608
 31
0.0
  0
LINE
  5
168
100
AcDbEntity
  8
Calque_1
 62
7
100
AcDbLine
 10
19.582016
 20
299.680608
 30
0.0
 11
24.562488
 21
299.680608
 31
0.0
  0
LINE
  5
169
100
AcDbEntity
  8
Calque_1
 62
7
100
AcDbLine
 10
24.562488
 20
299.680608
 30
0.0
 11
24.562488
 21
313.816388
 31
0.0
  0
LINE
  5
16a
100
AcDbEntity
  8
Calque_1
 62
7
100
AcDbLine
 10
24.562488
 20
313.816388
 30
0.0
 11
19.450176
 21
312.761673
 31
0.0
  0
LINE
  5
16b
100
AcDbEntity
  8
Calque_1
 62
7
100
AcDbLine
 10
19.450176
 20
312.761673
 30
0.0
 11
19.450176
 21
316.599557
 31
0.0
  0
LINE
  5
16c
100
AcDbEntity
  8
Calque_1
 62
7
100
AcDbLine
 10
19.450176
 20
316.599557
 30
0.0
 11
24.533178
 21
317.654300
 31
0.0
  0
ENDSEC
  0
SECTION
  2
OBJECTS
  0
DICTIONARY
  5
C
330
0
100
AcDbDictionary
  3
ACAD_GROUP
350
D
  3
ACAD_MLINESTYLE
350
17
  0
DICTIONARY
  5
D
330
C
100
AcDbDictionary
  0
DICTIONARY
  5
1A
330
C
100
AcDbDictionary
  0
DICTIONARY
  5
17
330
C
100
AcDbDictionary
  3
STANDARD
350
18
  0
DICTIONARY
  5
19
330
C
100
AcDbDictionary
  0
ENDSEC
  0
EOF
