  0
SECTION
  2
HEADER
  9
$ACADVER
  1
AC1018
  9
$ACADMAINTVER
 70
     0
  9
$DWGCODEPAGE
  3
ANSI_932
  9
$INSBASE
 10
0.0
 20
0.0
 30
0.0
  9
$EXTMIN
 10
1.000000000000000E+20
 20
1.000000000000000E+20
 30
1.000000000000000E+20
  9
$EXTMAX
 10
-1.000000000000000E+20
 20
-1.000000000000000E+20
 30
-1.000000000000000E+20
  9
$LIMMIN
 10
0.0
 20
0.0
  9
$LIMMAX
 10
12.0
 20
9.0
  9
$ORTHOMODE
 70
     0
  9
$REGENMODE
 70
     1
  9
$FILLMODE
 70
     1
  9
$QTEXTMODE
 70
     0
  9
$MIRRTEXT
 70
     1
  9
$LTSCALE
 40
1.0
  9
$ATTMODE
 70
     1
  9
$TEXTSIZE
 40
0.2
  9
$TRACEWID
 40
0.05
  9
$TEXTSTYLE
  7
Standard
  9
$CLAYER
  8
0
  9
$CELTYPE
  6
ByLayer
  9
$CECOLOR
 62
   256
  9
$CELTSCALE
 40
1.0
  9
$DISPSILH
 70
     0
  9
$DIMSCALE
 40
1.0
  9
$DIMASZ
 40
0.18
  9
$DIMEXO
 40
0.0625
  9
$DIMDLI
 40
0.38
  9
$DIMRND
 40
0.0
  9
$DIMDLE
 40
0.0
  9
$DIMEXE
 40
0.18
  9
$DIMTP
 40
0.0
  9
$DIMTM
 40
0.0
  9
$DIMTXT
 40
0.18
  9
$DIMCEN
 40
0.09
  9
$DIMTSZ
 40
0.0
  9
$DIMTOL
 70
     0
  9
$DIMLIM
 70
     0
  9
$DIMTIH
 70
     1
  9
$DIMTOH
 70
     1
  9
$DIMSE1
 70
     0
  9
$DIMSE2
 70
     0
  9
$DIMTAD
 70
     0
  9
$DIMZIN
 70
     0
  9
$DIMBLK
  1

  9
$DIMASO
 70
     1
  9
$DIMSHO
 70
     1
  9
$DIMPOST
  1

  9
$DIMAPOST
  1

  9
$DIMALT
 70
     0
  9
$DIMALTD
 70
     2
  9
$DIMALTF
 40
25.4
  9
$DIMLFAC
 40
1.0
  9
$DIMTOFL
 70
     0
  9
$DIMTVP
 40
0.0
  9
$DIMTIX
 70
     0
  9
$DIMSOXD
 70
     0
  9
$DIMSAH
 70
     0
  9
$DIMBLK1
  1

  9
$DIMBLK2
  1

  9
$DIMSTYLE
  2
Standard
  9
$DIMCLRD
 70
     0
  9
$DIMCLRE
 70
     0
  9
$DIMCLRT
 70
     0
  9
$DIMTFAC
 40
1.0
  9
$DIMGAP
 40
0.09
  9
$DIMJUST
 70
     0
  9
$DIMSD1
 70
     0
  9
$DIMSD2
 70
     0
  9
$DIMTOLJ
 70
     1
  9
$DIMTZIN
 70
     0
  9
$DIMALTZ
 70
     0
  9
$DIMALTTZ
 70
     0
  9
$DIMUPT
 70
     0
  9
$DIMDEC
 70
     4
  9
$DIMTDEC
 70
     4
  9
$DIMALTU
 70
     2
  9
$DIMALTTD
 70
     2
  9
$DIMTXSTY
  7
Standard
  9
$DIMAUNIT
 70
     0
  9
$DIMADEC
 70
     0
  9
$DIMALTRND
 40
0.0
  9
$DIMAZIN
 70
     0
  9
$DIMDSEP
 70
    46
  9
$DIMATFIT
 70
     3
  9
$DIMFRAC
 70
     0
  9
$DIMLDRBLK
  1

  9
$DIMLUNIT
 70
     2
  9
$DIMLWD
 70
    -2
  9
$DIMLWE
 70
    -2
  9
$DIMTMOVE
 70
     0
  9
$LUNITS
 70
     2
  9
$LUPREC
 70
     4
  9
$SKETCHINC
 40
0.1
  9
$FILLETRAD
 40
0.5
  9
$AUNITS
 70
     0
  9
$AUPREC
 70
     0
  9
$MENU
  1
.
  9
$ELEVATION
 40
0.0
  9
$PELEVATION
 40
0.0
  9
$THICKNESS
 40
0.0
  9
$LIMCHECK
 70
     0
  9
$CHAMFERA
 40
0.5
  9
$CHAMFERB
 40
0.5
  9
$CHAMFERC
 40
1.0
  9
$CHAMFERD
 40
0.0
  9
$SKPOLY
 70
     0
  9
$TDCREATE
 40
2457716.59068287
  9
$TDUCREATE
 40
2457716.549016204
  9
$TDUPDATE
 40
2457716.590682882
  9
$TDUUPDATE
 40
2457716.549016215
  9
$TDINDWG
 40
0.0000000116
  9
$TDUSRTIMER
 40
0.0000000116
  9
$USRTIMER
 70
     1
  9
$ANGBASE
 50
0.0
  9
$ANGDIR
 70
     0
  9
$PDMODE
 70
     0
  9
$PDSIZE
 40
0.0
  9
$PLINEWID
 40
0.0
  9
$SPLFRAME
 70
     0
  9
$SPLINETYPE
 70
     6
  9
$SPLINESEGS
 70
     8
  9
$HANDSEED
  5
D9
  9
$SURFTAB1
 70
     6
  9
$SURFTAB2
 70
     6
  9
$SURFTYPE
 70
     6
  9
$SURFU
 70
     6
  9
$SURFV
 70
     6
  9
$UCSBASE
  2

  9
$UCSNAME
  2

  9
$UCSORG
 10
0.0
 20
0.0
 30
0.0
  9
$UCSXDIR
 10
1.0
 20
0.0
 30
0.0
  9
$UCSYDIR
 10
0.0
 20
1.0
 30
0.0
  9
$UCSORTHOREF
  2

  9
$UCSORTHOVIEW
 70
     0
  9
$UCSORGTOP
 10
0.0
 20
0.0
 30
0.0
  9
$UCSORGBOTTOM
 10
0.0
 20
0.0
 30
0.0
  9
$UCSORGLEFT
 10
0.0
 20
0.0
 30
0.0
  9
$UCSORGRIGHT
 10
0.0
 20
0.0
 30
0.0
  9
$UCSORGFRONT
 10
0.0
 20
0.0
 30
0.0
  9
$UCSORGBACK
 10
0.0
 20
0.0
 30
0.0
  9
$PUCSBASE
  2

  9
$PUCSNAME
  2

  9
$PUCSORG
 10
0.0
 20
0.0
 30
0.0
  9
$PUCSXDIR
 10
1.0
 20
0.0
 30
0.0
  9
$PUCSYDIR
 10
0.0
 20
1.0
 30
0.0
  9
$PUCSORTHOREF
  2

  9
$PUCSORTHOVIEW
 70
     0
  9
$PUCSORGTOP
 10
0.0
 20
0.0
 30
0.0
  9
$PUCSORGBOTTOM
 10
0.0
 20
0.0
 30
0.0
  9
$PUCSORGLEFT
 10
0.0
 20
0.0
 30
0.0
  9
$PUCSORGRIGHT
 10
0.0
 20
0.0
 30
0.0
  9
$PUCSORGFRONT
 10
0.0
 20
0.0
 30
0.0
  9
$PUCSORGBACK
 10
0.0
 20
0.0
 30
0.0
  9
$USERI1
 70
     0
  9
$USERI2
 70
     0
  9
$USERI3
 70
     0
  9
$USERI4
 70
     0
  9
$USERI5
 70
     0
  9
$USERR1
 40
0.0
  9
$USERR2
 40
0.0
  9
$USERR3
 40
0.0
  9
$USERR4
 40
0.0
  9
$USERR5
 40
0.0
  9
$WORLDVIEW
 70
     1
  9
$SHADEDGE
 70
     3
  9
$SHADEDIF
 70
    70
  9
$TILEMODE
 70
     1
  9
$MAXACTVP
 70
    64
  9
$PINSBASE
 10
0.0
 20
0.0
 30
0.0
  9
$PLIMCHECK
 70
     0
  9
$PEXTMIN
 10
1.000000000000000E+20
 20
1.000000000000000E+20
 30
1.000000000000000E+20
  9
$PEXTMAX
 10
-1.000000000000000E+20
 20
-1.000000000000000E+20
 30
-1.000000000000000E+20
  9
$PLIMMIN
 10
0.0
 20
0.0
  9
$PLIMMAX
 10
12.0
 20
9.0
  9
$UNITMODE
 70
     0
  9
$VISRETAIN
 70
     1
  9
$PLINEGEN
 70
     0
  9
$PSLTSCALE
 70
     1
  9
$TREEDEPTH
 70
  3020
  9
$CMLSTYLE
  2
Standard
  9
$CMLJUST
 70
     0
  9
$CMLSCALE
 40
1.0
  9
$PROXYGRAPHICS
 70
     1
  9
$MEASUREMENT
 70
     0
  9
$CELWEIGHT
370
    -1
  9
$ENDCAPS
280
     0
  9
$JOINSTYLE
280
     0
  9
$LWDISPLAY
290
     1
  9
$INSUNITS
 70
     1
  9
$HYPERLINKBASE
  1

  9
$STYLESHEET
  1

  9
$XEDIT
290
     1
  9
$CEPSNTYPE
380
     0
  9
$PSTYLEMODE
290
     1
  9
$FINGERPRINTGUID
  2
{C3535F12-DAB3-838D-6240-98883628AB99}
  9
$VERSIONGUID
  2
{FAEB1C32-E019-11D5-929B-00C0DF256EC4}
  9
$EXTNAMES
290
     1
  9
$PSVPSCALE
 40
0.0
  9
$OLESTARTUP
290
     0
  9
$SORTENTS
280
   127
  9
$INDEXCTL
280
     0
  9
$HIDETEXT
280
     1
  9
$XCLIPFRAME
290
     0
  9
$HALOGAP
280
     0
  9
$OBSCOLOR
 70
   257
  9
$OBSLTYPE
280
     0
  9
$INTERSECTIONDISPLAY
280
     0
  9
$INTERSECTIONCOLOR
 70
   257
  9
$DIMASSOC
280
     2
  9
$PROJECTNAME
  1

  0
ENDSEC
  0
SECTION
  2
CLASSES
  0
CLASS
  1
ACDBDICTIONARYWDFLT
  2
AcDbDictionaryWithDefault
  3
ObjectDBX Classes
 90
        0
 91
        3
280
     0
281
     0
  0
CLASS
  1
VISUALSTYLE
  2
AcDbVisualStyle
  3
ObjectDBX Classes
 90
     4095
 91
        3
280
     0
281
     0
  0
ENDSEC
  0
SECTION
  2
TABLES
  0
TABLE
  2
VPORT
  5
8
330
0
100
AcDbSymbolTable
 70
     1
  0
VPORT
  5
29
330
8
100
AcDbSymbolTableRecord
100
AcDbViewportTableRecord
  2
*Active
 70
     0
 10
0.0
 20
0.0
 11
1.0
 21
1.0
 12
0.0
 22
0.0
 13
0.0
 23
0.0
 14
0.5
 24
0.5
 15
0.5
 25
0.5
 16
0.0
 26
0.0
 36
1.0
 17
249.9997199824543
 27
149.999470254208
 37
0.0
 40
299.998940508416
 41
1.666670685961579
 42
50.0
 43
0.0
 44
0.0
 50
0.0
 51
0.0
 71
     0
 72
   100
 73
     1
 74
     3
 75
     0
 76
     0
 77
     0
 78
     0
281
     0
 65
     1
110
0.0
120
0.0
130
0.0
111
1.0
121
0.0
131
0.0
112
0.0
122
1.0
132
0.0
 79
     0
146
0.0
  0
ENDTAB
  0
TABLE
  2
LTYPE
  5
5
330
0
100
AcDbSymbolTable
 70
     1
  0
LTYPE
  5
14
330
5
100
AcDbSymbolTableRecord
100
AcDbLinetypeTableRecord
  2
ByBlock
 70
     0
  3

 72
    65
 73
     0
 40
0.0
  0
LTYPE
  5
15
330
5
100
AcDbSymbolTableRecord
100
AcDbLinetypeTableRecord
  2
ByLayer
 70
     0
  3

 72
    65
 73
     0
 40
0.0
  0
LTYPE
  5
16
330
5
100
AcDbSymbolTableRecord
100
AcDbLinetypeTableRecord
  2
Continuous
 70
     0
  3
Solid line
 72
    65
 73
     0
 40
0.0
  0
ENDTAB
  0
TABLE
  2
LAYER
  5
2
330
0
100
AcDbSymbolTable
 70
     2
  0
LAYER
  5
10
330
2
100
AcDbSymbolTableRecord
100
AcDbLayerTableRecord
  2
0
 70
     0
 62
     7
  6
Continuous
370
    -3
390
F
  0
LAYER
  5
3B
330
2
100
AcDbSymbolTableRecord
100
AcDbLayerTableRecord
  2
Calque 1
 70
     0
 62
     7
  6
Continuous
370
    -3
390
F
  0
ENDTAB
  0
TABLE
  2
STYLE
  5
3
330
0
100
AcDbSymbolTable
 70
     1
  0
STYLE
  5
11
330
3
100
AcDbSymbolTableRecord
100
AcDbTextStyleTableRecord
  2
Standard
 70
     0
 40
0.0
 41
1.0
 50
0.0
 71
     0
 42
0.2
  3
txt
  4

  0
ENDTAB
  0
TABLE
  2
VIEW
  5
6
330
0
100
AcDbSymbolTable
 70
     0
  0
ENDTAB
  0
TABLE
  2
UCS
  5
7
330
0
100
AcDbSymbolTable
 70
     0
  0
ENDTAB
  0
TABLE
  2
APPID
  5
9
330
0
100
AcDbSymbolTable
 70
     1
  0
APPID
  5
12
330
9
100
AcDbSymbolTableRecord
100
AcDbRegAppTableRecord
  2
ACAD
 70
     0
  0
ENDTAB
  0
TABLE
  2
DIMSTYLE
  5
A
330
0
100
AcDbSymbolTable
 70
     1
100
AcDbDimStyleTable
  0
DIMSTYLE
105
27
330
A
100
AcDbSymbolTableRecord
100
AcDbDimStyleTableRecord
  2
Standard
 70
     0
340
11
  0
ENDTAB
  0
TABLE
  2
BLOCK_RECORD
  5
1
330
0
100
AcDbSymbolTable
 70
     3
  0
BLOCK_RECORD
  5
1F
330
1
100
AcDbSymbolTableRecord
100
AcDbBlockTableRecord
  2
*Model_Space
340
22
  0
BLOCK_RECORD
  5
1B
330
1
100
AcDbSymbolTableRecord
100
AcDbBlockTableRecord
  2
*Paper_Space
340
1E
  0
BLOCK_RECORD
  5
23
330
1
100
AcDbSymbolTableRecord
100
AcDbBlockTableRecord
  2
*Paper_Space0
340
26
  0
BLOCK_RECORD
  5
47
330
1
100
AcDbSymbolTableRecord
100
AcDbBlockTableRecord
  2
block 2
340
0
102
{BLKREFS
331
48
102
}
  0
BLOCK_RECORD
  5
73
330
1
100
AcDbSymbolTableRecord
100
AcDbBlockTableRecord
  2
block 3
340
0
102
{BLKREFS
331
74
102
}
  0
ENDTAB
  0
ENDSEC
  0
SECTION
  2
BLOCKS
  0
BLOCK
  5
20
330
1F
100
AcDbEntity
  8
0
100
AcDbBlockBegin
  2
*Model_Space
 70
     0
 71
     0
 10
0.0
 20
0.0
 30
0.0
  3
*Model_Space
  1

  0
ENDBLK
  5
21
330
1F
100
AcDbEntity
  8
0
100
AcDbBlockEnd
  0
BLOCK
  5
1C
330
1B
100
AcDbEntity
 67
     1
  8
0
100
AcDbBlockBegin
  2
*Paper_Space
 70
     0
 71
     0
 10
0.0
 20
0.0
 30
0.0
  3
*Paper_Space
  1

  0
ENDBLK
  5
1D
330
1B
100
AcDbEntity
 67
     1
  8
0
100
AcDbBlockEnd
  0
BLOCK
  5
24
330
23
100
AcDbEntity
  8
0
100
AcDbBlockBegin
  2
*Paper_Space0
 70
     0
 71
     0
 10
0.0
 20
0.0
 30
0.0
  3
*Paper_Space0
  1

  0
ENDBLK
  5
25
330
23
100
AcDbEntity
  8
0
100
AcDbBlockEnd
  0
BLOCK
  5
49
330
47
100
AcDbEntity
  8
0
100
AcDbBlockBegin
  2
block 2
 70
     0
 71
     0
 10
0.0
 20
0.0
 30
0.0
  3
block 2
  1

  0
SPLINE
  5
4B
330
47
100
AcDbEntity
  8
Calque 1
370
     0
100
AcDbSpline
210
0.0
220
0.0
230
1.0
 70
    11
 71
     3
 72
    65
 73
    61
 74
     0
 42
0.0000000001
 43
0.0000000001
 40
0.0
 40
0.0
 40
0.0
 40
0.0
 40
1.0
 40
1.0
 40
1.0
 40
2.0
 40
2.0
 40
2.0
 40
3.0
 40
3.0
 40
3.0
 40
4.0
 40
4.0
 40
4.0
 40
5.0
 40
5.0
 40
5.0
 40
6.0
 40
6.0
 40
6.0
 40
7.0
 40
7.0
 40
7.0
 40
8.0
 40
8.0
 40
8.0
 40
9.0
 40
9.0
 40
9.0
 40
10.0
 40
10.0
 40
10.0
 40
11.0
 40
11.0
 40
11.0
 40
12.0
 40
12.0
 40
12.0
 40
13.0
 40
13.0
 40
13.0
 40
14.0
 40
14.0
 40
14.0
 40
15.0
 40
15.0
 40
15.0
 40
16.0
 40
16.0
 40
16.0
 40
17.0
 40
17.0
 40
17.0
 40
18.0
 40
18.0
 40
18.0
 40
19.0
 40
19.0
 40
19.0
 40
20.0
 40
20.0
 40
20.0
 40
20.0
 10
185.4978436796891
 20
276.0663631485198
 30
0.0
 10
185.2363607598598
 20
276.0663631485198
 30
0.0
 10
185.0863267525006
 20
276.1710941203618
 30
0.0
 10
184.9747055851427
 20
276.3977815528357
 30
0.0
 10
184.9747055851427
 20
276.3977815528357
 30
0.0
 10
184.6537947289885
 20
277.0464934606599
 30
0.0
 10
184.6537947289885
 20
277.0464934606599
 30
0.0
 10
184.5945390475516
 20
277.1650048235338
 30
0.0
 10
184.5595713053083
 20
277.2766259908917
 30
0.0
 10
184.5595713053083
 20
277.4127073523312
 30
0.0
 10
184.5595713053083
 20
277.5663587123363
 30
0.0
 10
184.5874765971478
 20
277.6604098811287
 30
0.0
 10
184.6572398267465
 20
277.7999363403261
 30
0.0
 10
184.6572398267465
 20
277.7999363403261
 30
0.0
 10
184.9781506829006
 20
278.4452031503923
 30
0.0
 10
184.9781506829006
 20
278.4452031503923
 30
0.0
 10
185.0968343006624
 20
278.6860154836738
 30
0.0
 10
185.2466960531337
 20
278.7800666524662
 30
0.0
 10
185.5154136782548
 20
278.7800666524662
 30
0.0
 10
185.5154136782548
 20
278.7800666524662
 30
0.0
 10
186.1083150024
 20
278.7800666524662
 30
0.0
 10
186.1083150024
 20
278.7800666524662
 30
0.0
 10
186.1851406824025
 20
278.7800666524662
 30
0.0
 10
186.2828092038407
 20
278.7383809695949
 30
0.0
 10
186.2828092038407
 20
278.6057447059134
 30
0.0
 10
186.2828092038407
 20
278.4799986377477
 30
0.0
 10
186.1885857801605
 20
278.4314227593605
 30
0.0
 10
186.1083150024
 20
278.4314227593605
 30
0.0
 10
186.1083150024
 20
278.4314227593605
 30
0.0
 10
185.5257489715287
 20
278.4314227593605
 30
0.0
 10
185.5257489715287
 20
278.4314227593605
 30
0.0
 10
185.3758872190573
 20
278.4314227593605
 30
0.0
 10
185.3514270249758
 20
278.4172978585528
 30
0.0
 10
185.285108893135
 20
278.2850061046471
 30
0.0
 10
185.285108893135
 20
278.2850061046471
 30
0.0
 10
184.9817680355465
 20
277.6779798796942
 30
0.0
 10
184.9817680355465
 20
277.6779798796942
 30
0.0
 10
184.9362927451414
 20
277.5835842011261
 30
0.0
 10
184.9083874533019
 20
277.5208834219312
 30
0.0
 10
184.9083874533019
 20
277.4127073523312
 30
0.0
 10
184.9083874533019
 20
277.3152110857809
 30
0.0
 10
184.9397378428993
 20
277.2559554043439
 30
0.0
 10
184.9817680355465
 20
277.1722395288255
 30
0.0
 10
184.9817680355465
 20
277.1722395288255
 30
0.0
 10
185.2782186976191
 20
276.5686584016306
 30
0.0
 10
185.2782186976191
 20
276.5686584016306
 30
0.0
 10
185.3479819272178
 20
276.4256868446752
 30
0.0
 10
185.3827774145732
 20
276.4150070416255
 30
0.0
 10
185.5398738723363
 20
276.4150070416255
 30
0.0
 10
185.5398738723363
 20
276.4150070416255
 30
0.0
 10
186.1083150024
 20
276.4150070416255
 30
0.0
 10
186.1083150024
 20
276.4150070416255
 30
0.0
 10
186.1851406824025
 20
276.4150070416255
 30
0.0
 10
186.2828092038407
 20
276.3733213587541
 30
0.0
 10
186.2828092038407
 20
276.2406850950726
 30
0.0
 10
186.2828092038407
 20
276.1152835366829
 30
0.0
 10
186.1885857801605
 20
276.0663631485198
 30
0.0
 10
186.1083150024
 20
276.0663631485198
 30
0.0
 10
186.1083150024
 20
276.0663631485198
 30
0.0
 10
185.4978436796891
 20
276.0663631485198
 30
0.0
 10
185.4978436796891
 20
276.0663631485198
 30
0.0
  0
HATCH
  5
4C
330
47
100
AcDbEntity
  8
Calque 1
 62
   179
420
  1842203
100
AcDbHatch
 10
0.0
 20
0.0
 30
0.0
210
0.0
220
0.0
230
1.0
  2
SOLID
 70
     1
 71
     0
 91
        1
 92
        1
 93
        1
 72
     4
 94
        3
 73
     0
 74
     1
 95
       65
 96
       61
 40
0.0
 40
0.0
 40
0.0
 40
0.0
 40
1.0
 40
1.0
 40
1.0
 40
2.0
 40
2.0
 40
2.0
 40
3.0
 40
3.0
 40
3.0
 40
4.0
 40
4.0
 40
4.0
 40
5.0
 40
5.0
 40
5.0
 40
6.0
 40
6.0
 40
6.0
 40
7.0
 40
7.0
 40
7.0
 40
8.0
 40
8.0
 40
8.0
 40
9.0
 40
9.0
 40
9.0
 40
10.0
 40
10.0
 40
10.0
 40
11.0
 40
11.0
 40
11.0
 40
12.0
 40
12.0
 40
12.0
 40
13.0
 40
13.0
 40
13.0
 40
14.0
 40
14.0
 40
14.0
 40
15.0
 40
15.0
 40
15.0
 40
16.0
 40
16.0
 40
16.0
 40
17.0
 40
17.0
 40
17.0
 40
18.0
 40
18.0
 40
18.0
 40
19.0
 40
19.0
 40
19.0
 40
20.0
 40
20.0
 40
20.0
 40
20.0
 10
185.4978436796891
 20
276.0663631485198
 10
185.2363607598598
 20
276.0663631485198
 10
185.0863267525006
 20
276.1710941203618
 10
184.9747055851427
 20
276.3977815528357
 10
184.9747055851427
 20
276.3977815528357
 10
184.6537947289885
 20
277.0464934606599
 10
184.6537947289885
 20
277.0464934606599
 10
184.5945390475516
 20
277.1650048235338
 10
184.5595713053083
 20
277.2766259908917
 10
184.5595713053083
 20
277.4127073523312
 10
184.5595713053083
 20
277.5663587123363
 10
184.5874765971478
 20
277.6604098811287
 10
184.6572398267465
 20
277.7999363403261
 10
184.6572398267465
 20
277.7999363403261
 10
184.9781506829006
 20
278.4452031503923
 10
184.9781506829006
 20
278.4452031503923
 10
185.0968343006624
 20
278.6860154836738
 10
185.2466960531337
 20
278.7800666524662
 10
185.5154136782548
 20
278.7800666524662
 10
185.5154136782548
 20
278.7800666524662
 10
186.1083150024
 20
278.7800666524662
 10
186.1083150024
 20
278.7800666524662
 10
186.1851406824025
 20
278.7800666524662
 10
186.2828092038407
 20
278.7383809695949
 10
186.2828092038407
 20
278.6057447059134
 10
186.2828092038407
 20
278.4799986377477
 10
186.1885857801605
 20
278.4314227593605
 10
186.1083150024
 20
278.4314227593605
 10
186.1083150024
 20
278.4314227593605
 10
185.5257489715287
 20
278.4314227593605
 10
185.5257489715287
 20
278.4314227593605
 10
185.3758872190573
 20
278.4314227593605
 10
185.3514270249758
 20
278.4172978585528
 10
185.285108893135
 20
278.2850061046471
 10
185.285108893135
 20
278.2850061046471
 10
184.9817680355465
 20
277.6779798796942
 10
184.9817680355465
 20
277.6779798796942
 10
184.9362927451414
 20
277.5835842011261
 10
184.9083874533019
 20
277.5208834219312
 10
184.9083874533019
 20
277.4127073523312
 10
184.9083874533019
 20
277.3152110857809
 10
184.9397378428993
 20
277.2559554043439
 10
184.9817680355465
 20
277.1722395288255
 10
184.9817680355465
 20
277.1722395288255
 10
185.2782186976191
 20
276.5686584016306
 10
185.2782186976191
 20
276.5686584016306
 10
185.3479819272178
 20
276.4256868446752
 10
185.3827774145732
 20
276.4150070416255
 10
185.5398738723363
 20
276.4150070416255
 10
185.5398738723363
 20
276.4150070416255
 10
186.1083150024
 20
276.4150070416255
 10
186.1083150024
 20
276.4150070416255
 10
186.1851406824025
 20
276.4150070416255
 10
186.2828092038407
 20
276.3733213587541
 10
186.2828092038407
 20
276.2406850950726
 10
186.2828092038407
 20
276.1152835366829
 10
186.1885857801605
 20
276.0663631485198
 10
186.1083150024
 20
276.0663631485198
 10
186.1083150024
 20
276.0663631485198
 10
185.4978436796891
 20
276.0663631485198
 10
185.4978436796891
 20
276.0663631485198
 97
        0
 75
     2
 76
     1
 98
        0
  0
SPLINE
  5
4D
330
47
100
AcDbEntity
  8
Calque 1
370
     0
100
AcDbSpline
210
0.0
220
0.0
230
1.0
 70
    11
 71
     3
 72
    41
 73
    37
 74
     0
 42
0.0000000001
 43
0.0000000001
 40
0.0
 40
0.0
 40
0.0
 40
0.0
 40
1.0
 40
1.0
 40
1.0
 40
2.0
 40
2.0
 40
2.0
 40
3.0
 40
3.0
 40
3.0
 40
4.0
 40
4.0
 40
4.0
 40
5.0
 40
5.0
 40
5.0
 40
6.0
 40
6.0
 40
6.0
 40
7.0
 40
7.0
 40
7.0
 40
8.0
 40
8.0
 40
8.0
 40
9.0
 40
9.0
 40
9.0
 40
10.0
 40
10.0
 40
10.0
 40
11.0
 40
11.0
 40
11.0
 40
12.0
 40
12.0
 40
12.0
 40
12.0
 10
188.7021291043693
 20
277.7999363403261
 30
0.0
 10
188.7684472362101
 20
277.6638549788866
 30
0.0
 10
188.7929074302916
 20
277.5629136145783
 30
0.0
 10
188.7929074302916
 20
277.4127073523312
 30
0.0
 10
188.7929074302916
 20
277.2452756012943
 30
0.0
 10
188.7476043947744
 20
277.1405446294522
 30
0.0
 10
188.6776689102878
 20
276.9975730724968
 30
0.0
 10
188.6776689102878
 20
276.9975730724968
 30
0.0
 10
188.3569303090215
 20
276.3557513601885
 30
0.0
 10
188.3569303090215
 20
276.3557513601885
 30
0.0
 10
188.2732144335031
 20
276.1883196091516
 30
0.0
 10
188.1336879743056
 20
276.0663631485198
 30
0.0
 10
187.9312884810254
 20
276.0663631485198
 30
0.0
 10
187.7288889877451
 20
276.0663631485198
 30
0.0
 10
187.5893625285477
 20
276.1883196091516
 30
0.0
 10
187.5056466530292
 20
276.3557513601885
 30
0.0
 10
187.5056466530292
 20
276.3557513601885
 30
0.0
 10
187.184908051763
 20
276.9975730724968
 30
0.0
 10
187.184908051763
 20
276.9975730724968
 30
0.0
 10
187.1149725672764
 20
277.1405446294522
 30
0.0
 10
187.0696695317592
 20
277.2452756012943
 30
0.0
 10
187.0696695317592
 20
277.4127073523312
 30
0.0
 10
187.0696695317592
 20
277.5629136145783
 30
0.0
 10
187.0941297258407
 20
277.6638549788866
 30
0.0
 10
187.1604478576815
 20
277.7999363403261
 30
0.0
 10
187.1604478576815
 20
277.7999363403261
 30
0.0
 10
187.5092640056751
 20
278.4941235385554
 30
0.0
 10
187.5092640056751
 20
278.4941235385554
 30
0.0
 10
187.5929798811935
 20
278.6581101918343
 30
0.0
 10
187.735951438149
 20
278.7800666524662
 30
0.0
 10
187.9312884810254
 20
278.7800666524662
 30
0.0
 10
188.1266255239018
 20
278.7800666524662
 30
0.0
 10
188.2695970808572
 20
278.6581101918343
 30
0.0
 10
188.3533129563757
 20
278.4941235385554
 30
0.0
 10
188.3533129563757
 20
278.4941235385554
 30
0.0
 10
188.7021291043693
 20
277.7999363403261
 30
0.0
 10
188.7021291043693
 20
277.7999363403261
 30
0.0
  0
SPLINE
  5
4E
330
47
100
AcDbEntity
  8
Calque 1
370
     0
100
AcDbSpline
210
0.0
220
0.0
230
1.0
 70
    11
 71
     3
 72
    41
 73
    37
 74
     0
 42
0.0000000001
 43
0.0000000001
 40
0.0
 40
0.0
 40
0.0
 40
0.0
 40
1.0
 40
1.0
 40
1.0
 40
2.0
 40
2.0
 40
2.0
 40
3.0
 40
3.0
 40
3.0
 40
4.0
 40
4.0
 40
4.0
 40
5.0
 40
5.0
 40
5.0
 40
6.0
 40
6.0
 40
6.0
 40
7.0
 40
7.0
 40
7.0
 40
8.0
 40
8.0
 40
8.0
 40
9.0
 40
9.0
 40
9.0
 40
10.0
 40
10.0
 40
10.0
 40
11.0
 40
11.0
 40
11.0
 40
12.0
 40
12.0
 40
12.0
 40
12.0
 10
188.0499720987872
 20
278.3266917875184
 30
0.0
 10
188.0220668069477
 20
278.3825023711974
 30
0.0
 10
188.0044968083821
 20
278.4314227593605
 30
0.0
 10
187.9312884810254
 20
278.4314227593605
 30
0.0
 10
187.8580801536687
 20
278.4314227593605
 30
0.0
 10
187.8405101551031
 20
278.3825023711974
 30
0.0
 10
187.8126048632636
 20
278.3266917875184
 30
0.0
 10
187.8126048632636
 20
278.3266917875184
 30
0.0
 10
187.4987564575133
 20
277.695205368484
 30
0.0
 10
187.4987564575133
 20
277.695205368484
 30
0.0
 10
187.4463909715923
 20
277.5942640041758
 30
0.0
 10
187.4184856797528
 20
277.5277736174471
 30
0.0
 10
187.4184856797528
 20
277.4127073523312
 30
0.0
 10
187.4184856797528
 20
277.3221012812968
 30
0.0
 10
187.4395007760764
 20
277.2594005021019
 30
0.0
 10
187.4777413611897
 20
277.1825748220994
 30
0.0
 10
187.4777413611897
 20
277.1825748220994
 30
0.0
 10
187.8126048632636
 20
276.5197380134675
 30
0.0
 10
187.8126048632636
 20
276.5197380134675
 30
0.0
 10
187.8370650573451
 20
276.4708176253045
 30
0.0
 10
187.8615252514267
 20
276.4150070416255
 30
0.0
 10
187.9312884810254
 20
276.4150070416255
 30
0.0
 10
188.0010517106241
 20
276.4150070416255
 30
0.0
 10
188.0255119047056
 20
276.4708176253045
 30
0.0
 10
188.0499720987872
 20
276.5197380134675
 30
0.0
 10
188.0499720987872
 20
276.5197380134675
 30
0.0
 10
188.384835600861
 20
277.1825748220994
 30
0.0
 10
188.384835600861
 20
277.1825748220994
 30
0.0
 10
188.4230761859744
 20
277.2594005021019
 30
0.0
 10
188.444091282298
 20
277.3221012812968
 30
0.0
 10
188.444091282298
 20
277.4127073523312
 30
0.0
 10
188.444091282298
 20
277.5277736174471
 30
0.0
 10
188.4161859904585
 20
277.5942640041758
 30
0.0
 10
188.3638205045375
 20
277.695205368484
 30
0.0
 10
188.3638205045375
 20
277.695205368484
 30
0.0
 10
188.0499720987872
 20
278.3266917875184
 30
0.0
 10
188.0499720987872
 20
278.3266917875184
 30
0.0
  0
HATCH
  5
4F
330
47
100
AcDbEntity
  8
Calque 1
 62
   179
420
  1842203
100
AcDbHatch
 10
0.0
 20
0.0
 30
0.0
210
0.0
220
0.0
230
1.0
  2
SOLID
 70
     1
 71
     0
 91
        2
 92
        1
 93
        1
 72
     4
 94
        3
 73
     0
 74
     1
 95
       41
 96
       37
 40
0.0
 40
0.0
 40
0.0
 40
0.0
 40
1.0
 40
1.0
 40
1.0
 40
2.0
 40
2.0
 40
2.0
 40
3.0
 40
3.0
 40
3.0
 40
4.0
 40
4.0
 40
4.0
 40
5.0
 40
5.0
 40
5.0
 40
6.0
 40
6.0
 40
6.0
 40
7.0
 40
7.0
 40
7.0
 40
8.0
 40
8.0
 40
8.0
 40
9.0
 40
9.0
 40
9.0
 40
10.0
 40
10.0
 40
10.0
 40
11.0
 40
11.0
 40
11.0
 40
12.0
 40
12.0
 40
12.0
 40
12.0
 10
188.7021291043693
 20
277.7999363403261
 10
188.7684472362101
 20
277.6638549788866
 10
188.7929074302916
 20
277.5629136145783
 10
188.7929074302916
 20
277.4127073523312
 10
188.7929074302916
 20
277.2452756012943
 10
188.7476043947744
 20
277.1405446294522
 10
188.6776689102878
 20
276.9975730724968
 10
188.6776689102878
 20
276.9975730724968
 10
188.3569303090215
 20
276.3557513601885
 10
188.3569303090215
 20
276.3557513601885
 10
188.2732144335031
 20
276.1883196091516
 10
188.1336879743056
 20
276.0663631485198
 10
187.9312884810254
 20
276.0663631485198
 10
187.7288889877451
 20
276.0663631485198
 10
187.5893625285477
 20
276.1883196091516
 10
187.5056466530292
 20
276.3557513601885
 10
187.5056466530292
 20
276.3557513601885
 10
187.184908051763
 20
276.9975730724968
 10
187.184908051763
 20
276.9975730724968
 10
187.1149725672764
 20
277.1405446294522
 10
187.0696695317592
 20
277.2452756012943
 10
187.0696695317592
 20
277.4127073523312
 10
187.0696695317592
 20
277.5629136145783
 10
187.0941297258407
 20
277.6638549788866
 10
187.1604478576815
 20
277.7999363403261
 10
187.1604478576815
 20
277.7999363403261
 10
187.5092640056751
 20
278.4941235385554
 10
187.5092640056751
 20
278.4941235385554
 10
187.5929798811935
 20
278.6581101918343
 10
187.735951438149
 20
278.7800666524662
 10
187.9312884810254
 20
278.7800666524662
 10
188.1266255239018
 20
278.7800666524662
 10
188.2695970808572
 20
278.6581101918343
 10
188.3533129563757
 20
278.4941235385554
 10
188.3533129563757
 20
278.4941235385554
 10
188.7021291043693
 20
277.7999363403261
 10
188.7021291043693
 20
277.7999363403261
 97
        0
 92
        1
 93
        1
 72
     4
 94
        3
 73
     0
 74
     1
 95
       41
 96
       37
 40
0.0
 40
0.0
 40
0.0
 40
0.0
 40
1.0
 40
1.0
 40
1.0
 40
2.0
 40
2.0
 40
2.0
 40
3.0
 40
3.0
 40
3.0
 40
4.0
 40
4.0
 40
4.0
 40
5.0
 40
5.0
 40
5.0
 40
6.0
 40
6.0
 40
6.0
 40
7.0
 40
7.0
 40
7.0
 40
8.0
 40
8.0
 40
8.0
 40
9.0
 40
9.0
 40
9.0
 40
10.0
 40
10.0
 40
10.0
 40
11.0
 40
11.0
 40
11.0
 40
12.0
 40
12.0
 40
12.0
 40
12.0
 10
188.0499720987872
 20
278.3266917875184
 10
188.0220668069477
 20
278.3825023711974
 10
188.0044968083821
 20
278.4314227593605
 10
187.9312884810254
 20
278.4314227593605
 10
187.8580801536687
 20
278.4314227593605
 10
187.8405101551031
 20
278.3825023711974
 10
187.8126048632636
 20
278.3266917875184
 10
187.8126048632636
 20
278.3266917875184
 10
187.4987564575133
 20
277.695205368484
 10
187.4987564575133
 20
277.695205368484
 10
187.4463909715923
 20
277.5942640041758
 10
187.4184856797528
 20
277.5277736174471
 10
187.4184856797528
 20
277.4127073523312
 10
187.4184856797528
 20
277.3221012812968
 10
187.4395007760764
 20
277.2594005021019
 10
187.4777413611897
 20
277.1825748220994
 10
187.4777413611897
 20
277.1825748220994
 10
187.8126048632636
 20
276.5197380134675
 10
187.8126048632636
 20
276.5197380134675
 10
187.8370650573451
 20
276.4708176253045
 10
187.8615252514267
 20
276.4150070416255
 10
187.9312884810254
 20
276.4150070416255
 10
188.0010517106241
 20
276.4150070416255
 10
188.0255119047056
 20
276.4708176253045
 10
188.0499720987872
 20
276.5197380134675
 10
188.0499720987872
 20
276.5197380134675
 10
188.384835600861
 20
277.1825748220994
 10
188.384835600861
 20
277.1825748220994
 10
188.4230761859744
 20
277.2594005021019
 10
188.444091282298
 20
277.3221012812968
 10
188.444091282298
 20
277.4127073523312
 10
188.444091282298
 20
277.5277736174471
 10
188.4161859904585
 20
277.5942640041758
 10
188.3638205045375
 20
277.695205368484
 10
188.3638205045375
 20
277.695205368484
 10
188.0499720987872
 20
278.3266917875184
 10
188.0499720987872
 20
278.3266917875184
 97
        0
 75
     2
 76
     1
 98
        0
  0
SPLINE
  5
50
330
47
100
AcDbEntity
  8
Calque 1
370
     0
100
AcDbSpline
210
0.0
220
0.0
230
1.0
 70
    11
 71
     3
 72
    29
 73
    25
 74
     0
 42
0.0000000001
 43
0.0000000001
 40
0.0
 40
0.0
 40
0.0
 40
0.0
 40
1.0
 40
1.0
 40
1.0
 40
2.0
 40
2.0
 40
2.0
 40
3.0
 40
3.0
 40
3.0
 40
4.0
 40
4.0
 40
4.0
 40
5.0
 40
5.0
 40
5.0
 40
6.0
 40
6.0
 40
6.0
 40
7.0
 40
7.0
 40
7.0
 40
8.0
 40
8.0
 40
8.0
 40
8.0
 10
191.1283392004138
 20
276.4150070416255
 30
0.0
 10
191.2191175263361
 20
276.4150070416255
 30
0.0
 10
191.3028334018546
 20
276.3664311632382
 30
0.0
 10
191.3028334018546
 20
276.2406850950726
 30
0.0
 10
191.3028334018546
 20
276.1152835366829
 30
0.0
 10
191.2191175263361
 20
276.0663631485198
 30
0.0
 10
191.1283392004138
 20
276.0663631485198
 30
0.0
 10
191.1283392004138
 20
276.0663631485198
 30
0.0
 10
189.5795955033222
 20
276.0663631485198
 30
0.0
 10
189.5795955033222
 20
276.0663631485198
 30
0.0
 10
189.5795955033222
 20
276.0663631485198
 30
0.0
 10
189.5795955033222
 20
278.6057447059134
 30
0.0
 10
189.5795955033222
 20
278.6057447059134
 30
0.0
 10
189.5795955033222
 20
278.7173658732713
 30
0.0
 10
189.6285158914852
 20
278.7800666524662
 30
0.0
 10
189.7540897047629
 20
278.7800666524662
 30
0.0
 10
189.8796635180406
 20
278.7800666524662
 30
0.0
 10
189.9284116513158
 20
278.7173658732713
 30
0.0
 10
189.9284116513158
 20
278.6057447059134
 30
0.0
 10
189.9284116513158
 20
278.6057447059134
 30
0.0
 10
189.9284116513158
 20
276.4150070416255
 30
0.0
 10
189.9284116513158
 20
276.4150070416255
 30
0.0
 10
189.9284116513158
 20
276.4150070416255
 30
0.0
 10
191.1283392004138
 20
276.4150070416255
 30
0.0
 10
191.1283392004138
 20
276.4150070416255
 30
0.0
  0
HATCH
  5
51
330
47
100
AcDbEntity
  8
Calque 1
 62
   179
420
  1842203
100
AcDbHatch
 10
0.0
 20
0.0
 30
0.0
210
0.0
220
0.0
230
1.0
  2
SOLID
 70
     1
 71
     0
 91
        1
 92
        1
 93
        1
 72
     4
 94
        3
 73
     0
 74
     1
 95
       29
 96
       25
 40
0.0
 40
0.0
 40
0.0
 40
0.0
 40
1.0
 40
1.0
 40
1.0
 40
2.0
 40
2.0
 40
2.0
 40
3.0
 40
3.0
 40
3.0
 40
4.0
 40
4.0
 40
4.0
 40
5.0
 40
5.0
 40
5.0
 40
6.0
 40
6.0
 40
6.0
 40
7.0
 40
7.0
 40
7.0
 40
8.0
 40
8.0
 40
8.0
 40
8.0
 10
191.1283392004138
 20
276.4150070416255
 10
191.2191175263361
 20
276.4150070416255
 10
191.3028334018546
 20
276.3664311632382
 10
191.3028334018546
 20
276.2406850950726
 10
191.3028334018546
 20
276.1152835366829
 10
191.2191175263361
 20
276.0663631485198
 10
191.1283392004138
 20
276.0663631485198
 10
191.1283392004138
 20
276.0663631485198
 10
189.5795955033222
 20
276.0663631485198
 10
189.5795955033222
 20
276.0663631485198
 10
189.5795955033222
 20
276.0663631485198
 10
189.5795955033222
 20
278.6057447059134
 10
189.5795955033222
 20
278.6057447059134
 10
189.5795955033222
 20
278.7173658732713
 10
189.6285158914852
 20
278.7800666524662
 10
189.7540897047629
 20
278.7800666524662
 10
189.8796635180406
 20
278.7800666524662
 10
189.9284116513158
 20
278.7173658732713
 10
189.9284116513158
 20
278.6057447059134
 10
189.9284116513158
 20
278.6057447059134
 10
189.9284116513158
 20
276.4150070416255
 10
189.9284116513158
 20
276.4150070416255
 10
189.9284116513158
 20
276.4150070416255
 10
191.1283392004138
 20
276.4150070416255
 10
191.1283392004138
 20
276.4150070416255
 97
        0
 75
     2
 76
     1
 98
        0
  0
SPLINE
  5
52
330
47
100
AcDbEntity
  8
Calque 1
370
     0
100
AcDbSpline
210
0.0
220
0.0
230
1.0
 70
    11
 71
     3
 72
    29
 73
    25
 74
     0
 42
0.0000000001
 43
0.0000000001
 40
0.0
 40
0.0
 40
0.0
 40
0.0
 40
1.0
 40
1.0
 40
1.0
 40
2.0
 40
2.0
 40
2.0
 40
3.0
 40
3.0
 40
3.0
 40
4.0
 40
4.0
 40
4.0
 40
5.0
 40
5.0
 40
5.0
 40
6.0
 40
6.0
 40
6.0
 40
7.0
 40
7.0
 40
7.0
 40
8.0
 40
8.0
 40
8.0
 40
8.0
 10
193.6384374268647
 20
276.4150070416255
 30
0.0
 10
193.729215752787
 20
276.4150070416255
 30
0.0
 10
193.8129316283055
 20
276.3664311632382
 30
0.0
 10
193.8129316283055
 20
276.2406850950726
 30
0.0
 10
193.8129316283055
 20
276.1152835366829
 30
0.0
 10
193.729215752787
 20
276.0663631485198
 30
0.0
 10
193.6384374268647
 20
276.0663631485198
 30
0.0
 10
193.6384374268647
 20
276.0663631485198
 30
0.0
 10
192.089693729773
 20
276.0663631485198
 30
0.0
 10
192.089693729773
 20
276.0663631485198
 30
0.0
 10
192.089693729773
 20
276.0663631485198
 30
0.0
 10
192.089693729773
 20
278.6057447059134
 30
0.0
 10
192.089693729773
 20
278.6057447059134
 30
0.0
 10
192.089693729773
 20
278.7173658732713
 30
0.0
 10
192.1386141179361
 20
278.7800666524662
 30
0.0
 10
192.2641879312138
 20
278.7800666524662
 30
0.0
 10
192.3897617444915
 20
278.7800666524662
 30
0.0
 10
192.4385098777667
 20
278.7173658732713
 30
0.0
 10
192.4385098777667
 20
278.6057447059134
 30
0.0
 10
192.4385098777667
 20
278.6057447059134
 30
0.0
 10
192.4385098777667
 20
276.4150070416255
 30
0.0
 10
192.4385098777667
 20
276.4150070416255
 30
0.0
 10
192.4385098777667
 20
276.4150070416255
 30
0.0
 10
193.6384374268647
 20
276.4150070416255
 30
0.0
 10
193.6384374268647
 20
276.4150070416255
 30
0.0
  0
HATCH
  5
53
330
47
100
AcDbEntity
  8
Calque 1
 62
   179
420
  1842203
100
AcDbHatch
 10
0.0
 20
0.0
 30
0.0
210
0.0
220
0.0
230
1.0
  2
SOLID
 70
     1
 71
     0
 91
        1
 92
        1
 93
        1
 72
     4
 94
        3
 73
     0
 74
     1
 95
       29
 96
       25
 40
0.0
 40
0.0
 40
0.0
 40
0.0
 40
1.0
 40
1.0
 40
1.0
 40
2.0
 40
2.0
 40
2.0
 40
3.0
 40
3.0
 40
3.0
 40
4.0
 40
4.0
 40
4.0
 40
5.0
 40
5.0
 40
5.0
 40
6.0
 40
6.0
 40
6.0
 40
7.0
 40
7.0
 40
7.0
 40
8.0
 40
8.0
 40
8.0
 40
8.0
 10
193.6384374268647
 20
276.4150070416255
 10
193.729215752787
 20
276.4150070416255
 10
193.8129316283055
 20
276.3664311632382
 10
193.8129316283055
 20
276.2406850950726
 10
193.8129316283055
 20
276.1152835366829
 10
193.729215752787
 20
276.0663631485198
 10
193.6384374268647
 20
276.0663631485198
 10
193.6384374268647
 20
276.0663631485198
 10
192.089693729773
 20
276.0663631485198
 10
192.089693729773
 20
276.0663631485198
 10
192.089693729773
 20
276.0663631485198
 10
192.089693729773
 20
278.6057447059134
 10
192.089693729773
 20
278.6057447059134
 10
192.089693729773
 20
278.7173658732713
 10
192.1386141179361
 20
278.7800666524662
 10
192.2641879312138
 20
278.7800666524662
 10
192.3897617444915
 20
278.7800666524662
 10
192.4385098777667
 20
278.7173658732713
 10
192.4385098777667
 20
278.6057447059134
 10
192.4385098777667
 20
278.6057447059134
 10
192.4385098777667
 20
276.4150070416255
 10
192.4385098777667
 20
276.4150070416255
 10
192.4385098777667
 20
276.4150070416255
 10
193.6384374268647
 20
276.4150070416255
 10
193.6384374268647
 20
276.4150070416255
 97
        0
 75
     2
 76
     1
 98
        0
  0
SPLINE
  5
54
330
47
100
AcDbEntity
  8
Calque 1
370
     0
100
AcDbSpline
210
0.0
220
0.0
230
1.0
 70
    11
 71
     3
 72
    50
 73
    46
 74
     0
 42
0.0000000001
 43
0.0000000001
 40
0.0
 40
0.0
 40
0.0
 40
0.0
 40
1.0
 40
1.0
 40
1.0
 40
2.0
 40
2.0
 40
2.0
 40
3.0
 40
3.0
 40
3.0
 40
4.0
 40
4.0
 40
4.0
 40
5.0
 40
5.0
 40
5.0
 40
6.0
 40
6.0
 40
6.0
 40
7.0
 40
7.0
 40
7.0
 40
8.0
 40
8.0
 40
8.0
 40
9.0
 40
9.0
 40
9.0
 40
10.0
 40
10.0
 40
10.0
 40
11.0
 40
11.0
 40
11.0
 40
12.0
 40
12.0
 40
12.0
 40
13.0
 40
13.0
 40
13.0
 40
14.0
 40
14.0
 40
14.0
 40
15.0
 40
15.0
 40
15.0
 40
15.0
 10
196.1483633984277
 20
276.4150070416255
 30
0.0
 10
196.23914172435
 20
276.4150070416255
 30
0.0
 10
196.3228575998685
 20
276.3664311632382
 30
0.0
 10
196.3228575998685
 20
276.2406850950726
 30
0.0
 10
196.3228575998685
 20
276.1152835366829
 30
0.0
 10
196.23914172435
 20
276.0663631485198
 30
0.0
 10
196.1483633984277
 20
276.0663631485198
 30
0.0
 10
196.1483633984277
 20
276.0663631485198
 30
0.0
 10
194.599619701336
 20
276.0663631485198
 30
0.0
 10
194.599619701336
 20
276.0663631485198
 30
0.0
 10
194.599619701336
 20
276.0663631485198
 30
0.0
 10
194.599619701336
 20
278.7800666524662
 30
0.0
 10
194.599619701336
 20
278.7800666524662
 30
0.0
 10
194.599619701336
 20
278.7800666524662
 30
0.0
 10
196.1483633984277
 20
278.7800666524662
 30
0.0
 10
196.1483633984277
 20
278.7800666524662
 30
0.0
 10
196.23914172435
 20
278.7800666524662
 30
0.0
 10
196.3228575998685
 20
278.731490774079
 30
0.0
 10
196.3228575998685
 20
278.6057447059134
 30
0.0
 10
196.3228575998685
 20
278.4799986377477
 30
0.0
 10
196.23914172435
 20
278.4314227593605
 30
0.0
 10
196.1483633984277
 20
278.4314227593605
 30
0.0
 10
196.1483633984277
 20
278.4314227593605
 30
0.0
 10
194.9484358493297
 20
278.4314227593605
 30
0.0
 10
194.9484358493297
 20
278.4314227593605
 30
0.0
 10
194.9484358493297
 20
278.4314227593605
 30
0.0
 10
194.9484358493297
 20
277.5977091019337
 30
0.0
 10
194.9484358493297
 20
277.5977091019337
 30
0.0
 10
194.9484358493297
 20
277.5977091019337
 30
0.0
 10
195.4612386506023
 20
277.5977091019337
 30
0.0
 10
195.4612386506023
 20
277.5977091019337
 30
0.0
 10
195.5520169765246
 20
277.5977091019337
 30
0.0
 10
195.635732852043
 20
277.5487887137707
 30
0.0
 10
195.635732852043
 20
277.4233871553809
 30
0.0
 10
195.635732852043
 20
277.2976410872153
 30
0.0
 10
195.5520169765246
 20
277.2487206990522
 30
0.0
 10
195.4612386506023
 20
277.2487206990522
 30
0.0
 10
195.4612386506023
 20
277.2487206990522
 30
0.0
 10
194.9484358493297
 20
277.2487206990522
 30
0.0
 10
194.9484358493297
 20
277.2487206990522
 30
0.0
 10
194.9484358493297
 20
277.2487206990522
 30
0.0
 10
194.9484358493297
 20
276.4150070416255
 30
0.0
 10
194.9484358493297
 20
276.4150070416255
 30
0.0
 10
194.9484358493297
 20
276.4150070416255
 30
0.0
 10
196.1483633984277
 20
276.4150070416255
 30
0.0
 10
196.1483633984277
 20
276.4150070416255
 30
0.0
  0
HATCH
  5
55
330
47
100
AcDbEntity
  8
Calque 1
 62
   179
420
  1842203
100
AcDbHatch
 10
0.0
 20
0.0
 30
0.0
210
0.0
220
0.0
230
1.0
  2
SOLID
 70
     1
 71
     0
 91
        1
 92
        1
 93
        1
 72
     4
 94
        3
 73
     0
 74
     1
 95
       50
 96
       46
 40
0.0
 40
0.0
 40
0.0
 40
0.0
 40
1.0
 40
1.0
 40
1.0
 40
2.0
 40
2.0
 40
2.0
 40
3.0
 40
3.0
 40
3.0
 40
4.0
 40
4.0
 40
4.0
 40
5.0
 40
5.0
 40
5.0
 40
6.0
 40
6.0
 40
6.0
 40
7.0
 40
7.0
 40
7.0
 40
8.0
 40
8.0
 40
8.0
 40
9.0
 40
9.0
 40
9.0
 40
10.0
 40
10.0
 40
10.0
 40
11.0
 40
11.0
 40
11.0
 40
12.0
 40
12.0
 40
12.0
 40
13.0
 40
13.0
 40
13.0
 40
14.0
 40
14.0
 40
14.0
 40
15.0
 40
15.0
 40
15.0
 40
15.0
 10
196.1483633984277
 20
276.4150070416255
 10
196.23914172435
 20
276.4150070416255
 10
196.3228575998685
 20
276.3664311632382
 10
196.3228575998685
 20
276.2406850950726
 10
196.3228575998685
 20
276.1152835366829
 10
196.23914172435
 20
276.0663631485198
 10
196.1483633984277
 20
276.0663631485198
 10
196.1483633984277
 20
276.0663631485198
 10
194.599619701336
 20
276.0663631485198
 10
194.599619701336
 20
276.0663631485198
 10
194.599619701336
 20
276.0663631485198
 10
194.599619701336
 20
278.7800666524662
 10
194.599619701336
 20
278.7800666524662
 10
194.599619701336
 20
278.7800666524662
 10
196.1483633984277
 20
278.7800666524662
 10
196.1483633984277
 20
278.7800666524662
 10
196.23914172435
 20
278.7800666524662
 10
196.3228575998685
 20
278.731490774079
 10
196.3228575998685
 20
278.6057447059134
 10
196.3228575998685
 20
278.4799986377477
 10
196.23914172435
 20
278.4314227593605
 10
196.1483633984277
 20
278.4314227593605
 10
196.1483633984277
 20
278.4314227593605
 10
194.9484358493297
 20
278.4314227593605
 10
194.9484358493297
 20
278.4314227593605
 10
194.9484358493297
 20
278.4314227593605
 10
194.9484358493297
 20
277.5977091019337
 10
194.9484358493297
 20
277.5977091019337
 10
194.9484358493297
 20
277.5977091019337
 10
195.4612386506023
 20
277.5977091019337
 10
195.4612386506023
 20
277.5977091019337
 10
195.5520169765246
 20
277.5977091019337
 10
195.635732852043
 20
277.5487887137707
 10
195.635732852043
 20
277.4233871553809
 10
195.635732852043
 20
277.2976410872153
 10
195.5520169765246
 20
277.2487206990522
 10
195.4612386506023
 20
277.2487206990522
 10
195.4612386506023
 20
277.2487206990522
 10
194.9484358493297
 20
277.2487206990522
 10
194.9484358493297
 20
277.2487206990522
 10
194.9484358493297
 20
277.2487206990522
 10
194.9484358493297
 20
276.4150070416255
 10
194.9484358493297
 20
276.4150070416255
 10
194.9484358493297
 20
276.4150070416255
 10
196.1483633984277
 20
276.4150070416255
 10
196.1483633984277
 20
276.4150070416255
 97
        0
 75
     2
 76
     1
 98
        0
  0
SPLINE
  5
56
330
47
100
AcDbEntity
  8
Calque 1
370
     0
100
AcDbSpline
210
0.0
220
0.0
230
1.0
 70
    11
 71
     3
 72
    65
 73
    61
 74
     0
 42
0.0000000001
 43
0.0000000001
 40
0.0
 40
0.0
 40
0.0
 40
0.0
 40
1.0
 40
1.0
 40
1.0
 40
2.0
 40
2.0
 40
2.0
 40
3.0
 40
3.0
 40
3.0
 40
4.0
 40
4.0
 40
4.0
 40
5.0
 40
5.0
 40
5.0
 40
6.0
 40
6.0
 40
6.0
 40
7.0
 40
7.0
 40
7.0
 40
8.0
 40
8.0
 40
8.0
 40
9.0
 40
9.0
 40
9.0
 40
10.0
 40
10.0
 40
10.0
 40
11.0
 40
11.0
 40
11.0
 40
12.0
 40
12.0
 40
12.0
 40
13.0
 40
13.0
 40
13.0
 40
14.0
 40
14.0
 40
14.0
 40
15.0
 40
15.0
 40
15.0
 40
16.0
 40
16.0
 40
16.0
 40
17.0
 40
17.0
 40
17.0
 40
18.0
 40
18.0
 40
18.0
 40
19.0
 40
19.0
 40
19.0
 40
20.0
 40
20.0
 40
20.0
 40
20.0
 10
198.0479903021678
 20
276.0663631485198
 30
0.0
 10
197.7865073823385
 20
276.0663631485198
 30
0.0
 10
197.6364733749793
 20
276.1710941203618
 30
0.0
 10
197.5248522076213
 20
276.3977815528357
 30
0.0
 10
197.5248522076213
 20
276.3977815528357
 30
0.0
 10
197.2039413514672
 20
277.0464934606599
 30
0.0
 10
197.2039413514672
 20
277.0464934606599
 30
0.0
 10
197.1446856700302
 20
277.1650048235338
 30
0.0
 10
197.1097179277869
 20
277.2766259908917
 30
0.0
 10
197.1097179277869
 20
277.4127073523312
 30
0.0
 10
197.1097179277869
 20
277.5663587123363
 30
0.0
 10
197.1376232196264
 20
277.6604098811287
 30
0.0
 10
197.2073864492251
 20
277.7999363403261
 30
0.0
 10
197.2073864492251
 20
277.7999363403261
 30
0.0
 10
197.5282973053793
 20
278.4452031503923
 30
0.0
 10
197.5282973053793
 20
278.4452031503923
 30
0.0
 10
197.6469809231411
 20
278.6860154836738
 30
0.0
 10
197.7968426756124
 20
278.7800666524662
 30
0.0
 10
198.0655603007334
 20
278.7800666524662
 30
0.0
 10
198.0655603007334
 20
278.7800666524662
 30
0.0
 10
198.6584616248786
 20
278.7800666524662
 30
0.0
 10
198.6584616248786
 20
278.7800666524662
 30
0.0
 10
198.7352873048812
 20
278.7800666524662
 30
0.0
 10
198.8329558263194
 20
278.7383809695949
 30
0.0
 10
198.8329558263194
 20
278.6057447059134
 30
0.0
 10
198.8329558263194
 20
278.4799986377477
 30
0.0
 10
198.7387324026391
 20
278.4314227593605
 30
0.0
 10
198.6584616248786
 20
278.4314227593605
 30
0.0
 10
198.6584616248786
 20
278.4314227593605
 30
0.0
 10
198.0758955940073
 20
278.4314227593605
 30
0.0
 10
198.0758955940073
 20
278.4314227593605
 30
0.0
 10
197.9260338415359
 20
278.4314227593605
 30
0.0
 10
197.9015736474544
 20
278.4172978585528
 30
0.0
 10
197.8352555156137
 20
278.2850061046471
 30
0.0
 10
197.8352555156137
 20
278.2850061046471
 30
0.0
 10
197.5319146580251
 20
277.6779798796942
 30
0.0
 10
197.5319146580251
 20
277.6779798796942
 30
0.0
 10
197.48643936762
 20
277.5835842011261
 30
0.0
 10
197.4585340757805
 20
277.5208834219312
 30
0.0
 10
197.4585340757805
 20
277.4127073523312
 30
0.0
 10
197.4585340757805
 20
277.3152110857809
 30
0.0
 10
197.489884465378
 20
277.2559554043439
 30
0.0
 10
197.5319146580251
 20
277.1722395288255
 30
0.0
 10
197.5319146580251
 20
277.1722395288255
 30
0.0
 10
197.8283653200977
 20
276.5686584016306
 30
0.0
 10
197.8283653200977
 20
276.5686584016306
 30
0.0
 10
197.8981285496965
 20
276.4256868446752
 30
0.0
 10
197.9329240370519
 20
276.4150070416255
 30
0.0
 10
198.0900204948149
 20
276.4150070416255
 30
0.0
 10
198.0900204948149
 20
276.4150070416255
 30
0.0
 10
198.6584616248786
 20
276.4150070416255
 30
0.0
 10
198.6584616248786
 20
276.4150070416255
 30
0.0
 10
198.7352873048812
 20
276.4150070416255
 30
0.0
 10
198.8329558263194
 20
276.3733213587541
 30
0.0
 10
198.8329558263194
 20
276.2406850950726
 30
0.0
 10
198.8329558263194
 20
276.1152835366829
 30
0.0
 10
198.7387324026391
 20
276.0663631485198
 30
0.0
 10
198.6584616248786
 20
276.0663631485198
 30
0.0
 10
198.6584616248786
 20
276.0663631485198
 30
0.0
 10
198.0479903021678
 20
276.0663631485198
 30
0.0
 10
198.0479903021678
 20
276.0663631485198
 30
0.0
  0
HATCH
  5
57
330
47
100
AcDbEntity
  8
Calque 1
 62
   179
420
  1842203
100
AcDbHatch
 10
0.0
 20
0.0
 30
0.0
210
0.0
220
0.0
230
1.0
  2
SOLID
 70
     1
 71
     0
 91
        1
 92
        1
 93
        1
 72
     4
 94
        3
 73
     0
 74
     1
 95
       65
 96
       61
 40
0.0
 40
0.0
 40
0.0
 40
0.0
 40
1.0
 40
1.0
 40
1.0
 40
2.0
 40
2.0
 40
2.0
 40
3.0
 40
3.0
 40
3.0
 40
4.0
 40
4.0
 40
4.0
 40
5.0
 40
5.0
 40
5.0
 40
6.0
 40
6.0
 40
6.0
 40
7.0
 40
7.0
 40
7.0
 40
8.0
 40
8.0
 40
8.0
 40
9.0
 40
9.0
 40
9.0
 40
10.0
 40
10.0
 40
10.0
 40
11.0
 40
11.0
 40
11.0
 40
12.0
 40
12.0
 40
12.0
 40
13.0
 40
13.0
 40
13.0
 40
14.0
 40
14.0
 40
14.0
 40
15.0
 40
15.0
 40
15.0
 40
16.0
 40
16.0
 40
16.0
 40
17.0
 40
17.0
 40
17.0
 40
18.0
 40
18.0
 40
18.0
 40
19.0
 40
19.0
 40
19.0
 40
20.0
 40
20.0
 40
20.0
 40
20.0
 10
198.0479903021678
 20
276.0663631485198
 10
197.7865073823385
 20
276.0663631485198
 10
197.6364733749793
 20
276.1710941203618
 10
197.5248522076213
 20
276.3977815528357
 10
197.5248522076213
 20
276.3977815528357
 10
197.2039413514672
 20
277.0464934606599
 10
197.2039413514672
 20
277.0464934606599
 10
197.1446856700302
 20
277.1650048235338
 10
197.1097179277869
 20
277.2766259908917
 10
197.1097179277869
 20
277.4127073523312
 10
197.1097179277869
 20
277.5663587123363
 10
197.1376232196264
 20
277.6604098811287
 10
197.2073864492251
 20
277.7999363403261
 10
197.2073864492251
 20
277.7999363403261
 10
197.5282973053793
 20
278.4452031503923
 10
197.5282973053793
 20
278.4452031503923
 10
197.6469809231411
 20
278.6860154836738
 10
197.7968426756124
 20
278.7800666524662
 10
198.0655603007334
 20
278.7800666524662
 10
198.0655603007334
 20
278.7800666524662
 10
198.6584616248786
 20
278.7800666524662
 10
198.6584616248786
 20
278.7800666524662
 10
198.7352873048812
 20
278.7800666524662
 10
198.8329558263194
 20
278.7383809695949
 10
198.8329558263194
 20
278.6057447059134
 10
198.8329558263194
 20
278.4799986377477
 10
198.7387324026391
 20
278.4314227593605
 10
198.6584616248786
 20
278.4314227593605
 10
198.6584616248786
 20
278.4314227593605
 10
198.0758955940073
 20
278.4314227593605
 10
198.0758955940073
 20
278.4314227593605
 10
197.9260338415359
 20
278.4314227593605
 10
197.9015736474544
 20
278.4172978585528
 10
197.8352555156137
 20
278.2850061046471
 10
197.8352555156137
 20
278.2850061046471
 10
197.5319146580251
 20
277.6779798796942
 10
197.5319146580251
 20
277.6779798796942
 10
197.48643936762
 20
277.5835842011261
 10
197.4585340757805
 20
277.5208834219312
 10
197.4585340757805
 20
277.4127073523312
 10
197.4585340757805
 20
277.3152110857809
 10
197.489884465378
 20
277.2559554043439
 10
197.5319146580251
 20
277.1722395288255
 10
197.5319146580251
 20
277.1722395288255
 10
197.8283653200977
 20
276.5686584016306
 10
197.8283653200977
 20
276.5686584016306
 10
197.8981285496965
 20
276.4256868446752
 10
197.9329240370519
 20
276.4150070416255
 10
198.0900204948149
 20
276.4150070416255
 10
198.0900204948149
 20
276.4150070416255
 10
198.6584616248786
 20
276.4150070416255
 10
198.6584616248786
 20
276.4150070416255
 10
198.7352873048812
 20
276.4150070416255
 10
198.8329558263194
 20
276.3733213587541
 10
198.8329558263194
 20
276.2406850950726
 10
198.8329558263194
 20
276.1152835366829
 10
198.7387324026391
 20
276.0663631485198
 10
198.6584616248786
 20
276.0663631485198
 10
198.6584616248786
 20
276.0663631485198
 10
198.0479903021678
 20
276.0663631485198
 10
198.0479903021678
 20
276.0663631485198
 97
        0
 75
     2
 76
     1
 98
        0
  0
SPLINE
  5
58
330
47
100
AcDbEntity
  8
Calque 1
370
     0
100
AcDbSpline
210
0.0
220
0.0
230
1.0
 70
    11
 71
     3
 72
    50
 73
    46
 74
     0
 42
0.0000000001
 43
0.0000000001
 40
0.0
 40
0.0
 40
0.0
 40
0.0
 40
1.0
 40
1.0
 40
1.0
 40
2.0
 40
2.0
 40
2.0
 40
3.0
 40
3.0
 40
3.0
 40
4.0
 40
4.0
 40
4.0
 40
5.0
 40
5.0
 40
5.0
 40
6.0
 40
6.0
 40
6.0
 40
7.0
 40
7.0
 40
7.0
 40
8.0
 40
8.0
 40
8.0
 40
9.0
 40
9.0
 40
9.0
 40
10.0
 40
10.0
 40
10.0
 40
11.0
 40
11.0
 40
11.0
 40
12.0
 40
12.0
 40
12.0
 40
13.0
 40
13.0
 40
13.0
 40
14.0
 40
14.0
 40
14.0
 40
15.0
 40
15.0
 40
15.0
 40
15.0
 10
199.9684600473435
 20
278.4314227593605
 30
0.0
 10
199.9684600473435
 20
278.4314227593605
 30
0.0
 10
199.9684600473435
 20
278.3056766911949
 30
0.0
 10
199.9684600473435
 20
278.3056766911949
 30
0.0
 10
199.9684600473435
 20
278.1940555238369
 30
0.0
 10
199.9197119140684
 20
278.131354744642
 30
0.0
 10
199.7941381007907
 20
278.131354744642
 30
0.0
 10
199.668564287513
 20
278.131354744642
 30
0.0
 10
199.6196438993499
 20
278.1940555238369
 30
0.0
 10
199.6196438993499
 20
278.3056766911949
 30
0.0
 10
199.6196438993499
 20
278.3056766911949
 30
0.0
 10
199.6196438993499
 20
278.7800666524662
 30
0.0
 10
199.6196438993499
 20
278.7800666524662
 30
0.0
 10
199.6196438993499
 20
278.7800666524662
 30
0.0
 10
201.3428817978823
 20
278.7800666524662
 30
0.0
 10
201.3428817978823
 20
278.7800666524662
 30
0.0
 10
201.3428817978823
 20
278.7800666524662
 30
0.0
 10
201.3428817978823
 20
278.3056766911949
 30
0.0
 10
201.3428817978823
 20
278.3056766911949
 30
0.0
 10
201.3428817978823
 20
278.1940555238369
 30
0.0
 10
201.2939614097193
 20
278.131354744642
 30
0.0
 10
201.1683875964416
 20
278.131354744642
 30
0.0
 10
201.0428137831639
 20
278.131354744642
 30
0.0
 10
200.9940656498887
 20
278.1940555238369
 30
0.0
 10
200.9940656498887
 20
278.3056766911949
 30
0.0
 10
200.9940656498887
 20
278.3056766911949
 30
0.0
 10
200.9940656498887
 20
278.4314227593605
 30
0.0
 10
200.9940656498887
 20
278.4314227593605
 30
0.0
 10
200.9940656498887
 20
278.4314227593605
 30
0.0
 10
200.655584795169
 20
278.4314227593605
 30
0.0
 10
200.655584795169
 20
278.4314227593605
 30
0.0
 10
200.655584795169
 20
278.4314227593605
 30
0.0
 10
200.655584795169
 20
276.2406850950726
 30
0.0
 10
200.655584795169
 20
276.2406850950726
 30
0.0
 10
200.655584795169
 20
276.1290639277147
 30
0.0
 10
200.6068366618938
 20
276.0663631485198
 30
0.0
 10
200.4812628486161
 20
276.0663631485198
 30
0.0
 10
200.3556890353384
 20
276.0663631485198
 30
0.0
 10
200.3069409020633
 20
276.1290639277147
 30
0.0
 10
200.3069409020633
 20
276.2406850950726
 30
0.0
 10
200.3069409020633
 20
276.2406850950726
 30
0.0
 10
200.3069409020633
 20
278.4314227593605
 30
0.0
 10
200.3069409020633
 20
278.4314227593605
 30
0.0
 10
200.3069409020633
 20
278.4314227593605
 30
0.0
 10
199.9684600473435
 20
278.4314227593605
 30
0.0
 10
199.9684600473435
 20
278.4314227593605
 30
0.0
  0
HATCH
  5
59
330
47
100
AcDbEntity
  8
Calque 1
 62
   179
420
  1842203
100
AcDbHatch
 10
0.0
 20
0.0
 30
0.0
210
0.0
220
0.0
230
1.0
  2
SOLID
 70
     1
 71
     0
 91
        1
 92
        1
 93
        1
 72
     4
 94
        3
 73
     0
 74
     1
 95
       50
 96
       46
 40
0.0
 40
0.0
 40
0.0
 40
0.0
 40
1.0
 40
1.0
 40
1.0
 40
2.0
 40
2.0
 40
2.0
 40
3.0
 40
3.0
 40
3.0
 40
4.0
 40
4.0
 40
4.0
 40
5.0
 40
5.0
 40
5.0
 40
6.0
 40
6.0
 40
6.0
 40
7.0
 40
7.0
 40
7.0
 40
8.0
 40
8.0
 40
8.0
 40
9.0
 40
9.0
 40
9.0
 40
10.0
 40
10.0
 40
10.0
 40
11.0
 40
11.0
 40
11.0
 40
12.0
 40
12.0
 40
12.0
 40
13.0
 40
13.0
 40
13.0
 40
14.0
 40
14.0
 40
14.0
 40
15.0
 40
15.0
 40
15.0
 40
15.0
 10
199.9684600473435
 20
278.4314227593605
 10
199.9684600473435
 20
278.4314227593605
 10
199.9684600473435
 20
278.3056766911949
 10
199.9684600473435
 20
278.3056766911949
 10
199.9684600473435
 20
278.1940555238369
 10
199.9197119140684
 20
278.131354744642
 10
199.7941381007907
 20
278.131354744642
 10
199.668564287513
 20
278.131354744642
 10
199.6196438993499
 20
278.1940555238369
 10
199.6196438993499
 20
278.3056766911949
 10
199.6196438993499
 20
278.3056766911949
 10
199.6196438993499
 20
278.7800666524662
 10
199.6196438993499
 20
278.7800666524662
 10
199.6196438993499
 20
278.7800666524662
 10
201.3428817978823
 20
278.7800666524662
 10
201.3428817978823
 20
278.7800666524662
 10
201.3428817978823
 20
278.7800666524662
 10
201.3428817978823
 20
278.3056766911949
 10
201.3428817978823
 20
278.3056766911949
 10
201.3428817978823
 20
278.1940555238369
 10
201.2939614097193
 20
278.131354744642
 10
201.1683875964416
 20
278.131354744642
 10
201.0428137831639
 20
278.131354744642
 10
200.9940656498887
 20
278.1940555238369
 10
200.9940656498887
 20
278.3056766911949
 10
200.9940656498887
 20
278.3056766911949
 10
200.9940656498887
 20
278.4314227593605
 10
200.9940656498887
 20
278.4314227593605
 10
200.9940656498887
 20
278.4314227593605
 10
200.655584795169
 20
278.4314227593605
 10
200.655584795169
 20
278.4314227593605
 10
200.655584795169
 20
278.4314227593605
 10
200.655584795169
 20
276.2406850950726
 10
200.655584795169
 20
276.2406850950726
 10
200.655584795169
 20
276.1290639277147
 10
200.6068366618938
 20
276.0663631485198
 10
200.4812628486161
 20
276.0663631485198
 10
200.3556890353384
 20
276.0663631485198
 10
200.3069409020633
 20
276.1290639277147
 10
200.3069409020633
 20
276.2406850950726
 10
200.3069409020633
 20
276.2406850950726
 10
200.3069409020633
 20
278.4314227593605
 10
200.3069409020633
 20
278.4314227593605
 10
200.3069409020633
 20
278.4314227593605
 10
199.9684600473435
 20
278.4314227593605
 10
199.9684600473435
 20
278.4314227593605
 97
        0
 75
     2
 76
     1
 98
        0
  0
SPLINE
  5
5A
330
47
100
AcDbEntity
  8
Calque 1
370
     0
100
AcDbSpline
210
0.0
220
0.0
230
1.0
 70
    11
 71
     3
 72
    50
 73
    46
 74
     0
 42
0.0000000001
 43
0.0000000001
 40
0.0
 40
0.0
 40
0.0
 40
0.0
 40
1.0
 40
1.0
 40
1.0
 40
2.0
 40
2.0
 40
2.0
 40
3.0
 40
3.0
 40
3.0
 40
4.0
 40
4.0
 40
4.0
 40
5.0
 40
5.0
 40
5.0
 40
6.0
 40
6.0
 40
6.0
 40
7.0
 40
7.0
 40
7.0
 40
8.0
 40
8.0
 40
8.0
 40
9.0
 40
9.0
 40
9.0
 40
10.0
 40
10.0
 40
10.0
 40
11.0
 40
11.0
 40
11.0
 40
12.0
 40
12.0
 40
12.0
 40
13.0
 40
13.0
 40
13.0
 40
14.0
 40
14.0
 40
14.0
 40
15.0
 40
15.0
 40
15.0
 40
15.0
 10
203.6784858228925
 20
276.4150070416255
 30
0.0
 10
203.7692641488148
 20
276.4150070416255
 30
0.0
 10
203.8529800243332
 20
276.3664311632382
 30
0.0
 10
203.8529800243332
 20
276.2406850950726
 30
0.0
 10
203.8529800243332
 20
276.1152835366829
 30
0.0
 10
203.7692641488148
 20
276.0663631485198
 30
0.0
 10
203.6784858228925
 20
276.0663631485198
 30
0.0
 10
203.6784858228925
 20
276.0663631485198
 30
0.0
 10
202.1297421258008
 20
276.0663631485198
 30
0.0
 10
202.1297421258008
 20
276.0663631485198
 30
0.0
 10
202.1297421258008
 20
276.0663631485198
 30
0.0
 10
202.1297421258008
 20
278.7800666524662
 30
0.0
 10
202.1297421258008
 20
278.7800666524662
 30
0.0
 10
202.1297421258008
 20
278.7800666524662
 30
0.0
 10
203.6784858228925
 20
278.7800666524662
 30
0.0
 10
203.6784858228925
 20
278.7800666524662
 30
0.0
 10
203.7692641488148
 20
278.7800666524662
 30
0.0
 10
203.8529800243332
 20
278.731490774079
 30
0.0
 10
203.8529800243332
 20
278.6057447059134
 30
0.0
 10
203.8529800243332
 20
278.4799986377477
 30
0.0
 10
203.7692641488148
 20
278.4314227593605
 30
0.0
 10
203.6784858228925
 20
278.4314227593605
 30
0.0
 10
203.6784858228925
 20
278.4314227593605
 30
0.0
 10
202.4785582737944
 20
278.4314227593605
 30
0.0
 10
202.4785582737944
 20
278.4314227593605
 30
0.0
 10
202.4785582737944
 20
278.4314227593605
 30
0.0
 10
202.4785582737944
 20
277.5977091019337
 30
0.0
 10
202.4785582737944
 20
277.5977091019337
 30
0.0
 10
202.4785582737944
 20
277.5977091019337
 30
0.0
 10
202.991361075067
 20
277.5977091019337
 30
0.0
 10
202.991361075067
 20
277.5977091019337
 30
0.0
 10
203.0819671461014
 20
277.5977091019337
 30
0.0
 10
203.1656830216199
 20
277.5487887137707
 30
0.0
 10
203.1656830216199
 20
277.4233871553809
 30
0.0
 10
203.1656830216199
 20
277.2976410872153
 30
0.0
 10
203.0819671461014
 20
277.2487206990522
 30
0.0
 10
202.991361075067
 20
277.2487206990522
 30
0.0
 10
202.991361075067
 20
277.2487206990522
 30
0.0
 10
202.4785582737944
 20
277.2487206990522
 30
0.0
 10
202.4785582737944
 20
277.2487206990522
 30
0.0
 10
202.4785582737944
 20
277.2487206990522
 30
0.0
 10
202.4785582737944
 20
276.4150070416255
 30
0.0
 10
202.4785582737944
 20
276.4150070416255
 30
0.0
 10
202.4785582737944
 20
276.4150070416255
 30
0.0
 10
203.6784858228925
 20
276.4150070416255
 30
0.0
 10
203.6784858228925
 20
276.4150070416255
 30
0.0
  0
HATCH
  5
5B
330
47
100
AcDbEntity
  8
Calque 1
 62
   179
420
  1842203
100
AcDbHatch
 10
0.0
 20
0.0
 30
0.0
210
0.0
220
0.0
230
1.0
  2
SOLID
 70
     1
 71
     0
 91
        1
 92
        1
 93
        1
 72
     4
 94
        3
 73
     0
 74
     1
 95
       50
 96
       46
 40
0.0
 40
0.0
 40
0.0
 40
0.0
 40
1.0
 40
1.0
 40
1.0
 40
2.0
 40
2.0
 40
2.0
 40
3.0
 40
3.0
 40
3.0
 40
4.0
 40
4.0
 40
4.0
 40
5.0
 40
5.0
 40
5.0
 40
6.0
 40
6.0
 40
6.0
 40
7.0
 40
7.0
 40
7.0
 40
8.0
 40
8.0
 40
8.0
 40
9.0
 40
9.0
 40
9.0
 40
10.0
 40
10.0
 40
10.0
 40
11.0
 40
11.0
 40
11.0
 40
12.0
 40
12.0
 40
12.0
 40
13.0
 40
13.0
 40
13.0
 40
14.0
 40
14.0
 40
14.0
 40
15.0
 40
15.0
 40
15.0
 40
15.0
 10
203.6784858228925
 20
276.4150070416255
 10
203.7692641488148
 20
276.4150070416255
 10
203.8529800243332
 20
276.3664311632382
 10
203.8529800243332
 20
276.2406850950726
 10
203.8529800243332
 20
276.1152835366829
 10
203.7692641488148
 20
276.0663631485198
 10
203.6784858228925
 20
276.0663631485198
 10
203.6784858228925
 20
276.0663631485198
 10
202.1297421258008
 20
276.0663631485198
 10
202.1297421258008
 20
276.0663631485198
 10
202.1297421258008
 20
276.0663631485198
 10
202.1297421258008
 20
278.7800666524662
 10
202.1297421258008
 20
278.7800666524662
 10
202.1297421258008
 20
278.7800666524662
 10
203.6784858228925
 20
278.7800666524662
 10
203.6784858228925
 20
278.7800666524662
 10
203.7692641488148
 20
278.7800666524662
 10
203.8529800243332
 20
278.731490774079
 10
203.8529800243332
 20
278.6057447059134
 10
203.8529800243332
 20
278.4799986377477
 10
203.7692641488148
 20
278.4314227593605
 10
203.6784858228925
 20
278.4314227593605
 10
203.6784858228925
 20
278.4314227593605
 10
202.4785582737944
 20
278.4314227593605
 10
202.4785582737944
 20
278.4314227593605
 10
202.4785582737944
 20
278.4314227593605
 10
202.4785582737944
 20
277.5977091019337
 10
202.4785582737944
 20
277.5977091019337
 10
202.4785582737944
 20
277.5977091019337
 10
202.991361075067
 20
277.5977091019337
 10
202.991361075067
 20
277.5977091019337
 10
203.0819671461014
 20
277.5977091019337
 10
203.1656830216199
 20
277.5487887137707
 10
203.1656830216199
 20
277.4233871553809
 10
203.1656830216199
 20
277.2976410872153
 10
203.0819671461014
 20
277.2487206990522
 10
202.991361075067
 20
277.2487206990522
 10
202.991361075067
 20
277.2487206990522
 10
202.4785582737944
 20
277.2487206990522
 10
202.4785582737944
 20
277.2487206990522
 10
202.4785582737944
 20
277.2487206990522
 10
202.4785582737944
 20
276.4150070416255
 10
202.4785582737944
 20
276.4150070416255
 10
202.4785582737944
 20
276.4150070416255
 10
203.6784858228925
 20
276.4150070416255
 10
203.6784858228925
 20
276.4150070416255
 97
        0
 75
     2
 76
     1
 98
        0
  0
SPLINE
  5
5C
330
47
100
AcDbEntity
  8
Calque 1
370
     0
100
AcDbSpline
210
0.0
220
0.0
230
1.0
 70
    11
 71
     3
 72
    53
 73
    49
 74
     0
 42
0.0000000001
 43
0.0000000001
 40
0.0
 40
0.0
 40
0.0
 40
0.0
 40
1.0
 40
1.0
 40
1.0
 40
2.0
 40
2.0
 40
2.0
 40
3.0
 40
3.0
 40
3.0
 40
4.0
 40
4.0
 40
4.0
 40
5.0
 40
5.0
 40
5.0
 40
6.0
 40
6.0
 40
6.0
 40
7.0
 40
7.0
 40
7.0
 40
8.0
 40
8.0
 40
8.0
 40
9.0
 40
9.0
 40
9.0
 40
10.0
 40
10.0
 40
10.0
 40
11.0
 40
11.0
 40
11.0
 40
12.0
 40
12.0
 40
12.0
 40
13.0
 40
13.0
 40
13.0
 40
14.0
 40
14.0
 40
14.0
 40
15.0
 40
15.0
 40
15.0
 40
16.0
 40
16.0
 40
16.0
 40
16.0
 10
205.2050086394453
 20
276.0663631485198
 30
0.0
 10
205.0305144380045
 20
276.0663631485198
 30
0.0
 10
204.8944330765651
 20
276.1083933411669
 30
0.0
 10
204.7724766159332
 20
276.2441301928306
 30
0.0
 10
204.6574103508173
 20
276.3733213587541
 30
0.0
 10
204.6398403522517
 20
276.4990674269198
 30
0.0
 10
204.6398403522517
 20
276.659264472665
 30
0.0
 10
204.6398403522517
 20
276.659264472665
 30
0.0
 10
204.6398403522517
 20
278.6057447059134
 30
0.0
 10
204.6398403522517
 20
278.6057447059134
 30
0.0
 10
204.6398403522517
 20
278.7173658732713
 30
0.0
 10
204.6887607404148
 20
278.7800666524662
 30
0.0
 10
204.8143345536924
 20
278.7800666524662
 30
0.0
 10
204.9399083669701
 20
278.7800666524662
 30
0.0
 10
204.9886565002453
 20
278.7173658732713
 30
0.0
 10
204.9886565002453
 20
278.6057447059134
 30
0.0
 10
204.9886565002453
 20
278.6057447059134
 30
0.0
 10
204.9886565002453
 20
276.659264472665
 30
0.0
 10
204.9886565002453
 20
276.659264472665
 30
0.0
 10
204.9886565002453
 20
276.4639274297886
 30
0.0
 10
205.0480844365702
 20
276.4150070416255
 30
0.0
 10
205.2050086394453
 20
276.4150070416255
 30
0.0
 10
205.2050086394453
 20
276.4150070416255
 30
0.0
 10
205.7979099635905
 20
276.4150070416255
 30
0.0
 10
205.7979099635905
 20
276.4150070416255
 30
0.0
 10
205.9548341664657
 20
276.4150070416255
 30
0.0
 10
206.0142621027905
 20
276.4639274297886
 30
0.0
 10
206.0142621027905
 20
276.659264472665
 30
0.0
 10
206.0142621027905
 20
276.659264472665
 30
0.0
 10
206.0142621027905
 20
278.6057447059134
 30
0.0
 10
206.0142621027905
 20
278.6057447059134
 30
0.0
 10
206.0142621027905
 20
278.7173658732713
 30
0.0
 10
206.0630102360657
 20
278.7800666524662
 30
0.0
 10
206.1885840493433
 20
278.7800666524662
 30
0.0
 10
206.3141578626211
 20
278.7800666524662
 30
0.0
 10
206.3630782507841
 20
278.7173658732713
 30
0.0
 10
206.3630782507841
 20
278.6057447059134
 30
0.0
 10
206.3630782507841
 20
278.6057447059134
 30
0.0
 10
206.3630782507841
 20
276.659264472665
 30
0.0
 10
206.3630782507841
 20
276.659264472665
 30
0.0
 10
206.3630782507841
 20
276.4990674269198
 30
0.0
 10
206.3455082522185
 20
276.3733213587541
 30
0.0
 10
206.2304419871026
 20
276.2441301928306
 30
0.0
 10
206.1084855264708
 20
276.1083933411669
 30
0.0
 10
205.9724041650313
 20
276.0663631485198
 30
0.0
 10
205.7979099635905
 20
276.0663631485198
 30
0.0
 10
205.7979099635905
 20
276.0663631485198
 30
0.0
 10
205.2050086394453
 20
276.0663631485198
 30
0.0
 10
205.2050086394453
 20
276.0663631485198
 30
0.0
  0
HATCH
  5
5D
330
47
100
AcDbEntity
  8
Calque 1
 62
   179
420
  1842203
100
AcDbHatch
 10
0.0
 20
0.0
 30
0.0
210
0.0
220
0.0
230
1.0
  2
SOLID
 70
     1
 71
     0
 91
        1
 92
        1
 93
        1
 72
     4
 94
        3
 73
     0
 74
     1
 95
       53
 96
       49
 40
0.0
 40
0.0
 40
0.0
 40
0.0
 40
1.0
 40
1.0
 40
1.0
 40
2.0
 40
2.0
 40
2.0
 40
3.0
 40
3.0
 40
3.0
 40
4.0
 40
4.0
 40
4.0
 40
5.0
 40
5.0
 40
5.0
 40
6.0
 40
6.0
 40
6.0
 40
7.0
 40
7.0
 40
7.0
 40
8.0
 40
8.0
 40
8.0
 40
9.0
 40
9.0
 40
9.0
 40
10.0
 40
10.0
 40
10.0
 40
11.0
 40
11.0
 40
11.0
 40
12.0
 40
12.0
 40
12.0
 40
13.0
 40
13.0
 40
13.0
 40
14.0
 40
14.0
 40
14.0
 40
15.0
 40
15.0
 40
15.0
 40
16.0
 40
16.0
 40
16.0
 40
16.0
 10
205.2050086394453
 20
276.0663631485198
 10
205.0305144380045
 20
276.0663631485198
 10
204.8944330765651
 20
276.1083933411669
 10
204.7724766159332
 20
276.2441301928306
 10
204.6574103508173
 20
276.3733213587541
 10
204.6398403522517
 20
276.4990674269198
 10
204.6398403522517
 20
276.659264472665
 10
204.6398403522517
 20
276.659264472665
 10
204.6398403522517
 20
278.6057447059134
 10
204.6398403522517
 20
278.6057447059134
 10
204.6398403522517
 20
278.7173658732713
 10
204.6887607404148
 20
278.7800666524662
 10
204.8143345536924
 20
278.7800666524662
 10
204.9399083669701
 20
278.7800666524662
 10
204.9886565002453
 20
278.7173658732713
 10
204.9886565002453
 20
278.6057447059134
 10
204.9886565002453
 20
278.6057447059134
 10
204.9886565002453
 20
276.659264472665
 10
204.9886565002453
 20
276.659264472665
 10
204.9886565002453
 20
276.4639274297886
 10
205.0480844365702
 20
276.4150070416255
 10
205.2050086394453
 20
276.4150070416255
 10
205.2050086394453
 20
276.4150070416255
 10
205.7979099635905
 20
276.4150070416255
 10
205.7979099635905
 20
276.4150070416255
 10
205.9548341664657
 20
276.4150070416255
 10
206.0142621027905
 20
276.4639274297886
 10
206.0142621027905
 20
276.659264472665
 10
206.0142621027905
 20
276.659264472665
 10
206.0142621027905
 20
278.6057447059134
 10
206.0142621027905
 20
278.6057447059134
 10
206.0142621027905
 20
278.7173658732713
 10
206.0630102360657
 20
278.7800666524662
 10
206.1885840493433
 20
278.7800666524662
 10
206.3141578626211
 20
278.7800666524662
 10
206.3630782507841
 20
278.7173658732713
 10
206.3630782507841
 20
278.6057447059134
 10
206.3630782507841
 20
278.6057447059134
 10
206.3630782507841
 20
276.659264472665
 10
206.3630782507841
 20
276.659264472665
 10
206.3630782507841
 20
276.4990674269198
 10
206.3455082522185
 20
276.3733213587541
 10
206.2304419871026
 20
276.2441301928306
 10
206.1084855264708
 20
276.1083933411669
 10
205.9724041650313
 20
276.0663631485198
 10
205.7979099635905
 20
276.0663631485198
 10
205.7979099635905
 20
276.0663631485198
 10
205.2050086394453
 20
276.0663631485198
 10
205.2050086394453
 20
276.0663631485198
 97
        0
 75
     2
 76
     1
 98
        0
  0
SPLINE
  5
5E
330
47
100
AcDbEntity
  8
Calque 1
370
     0
100
AcDbSpline
210
0.0
220
0.0
230
1.0
 70
    11
 71
     3
 72
    50
 73
    46
 74
     0
 42
0.0000000001
 43
0.0000000001
 40
0.0
 40
0.0
 40
0.0
 40
0.0
 40
1.0
 40
1.0
 40
1.0
 40
2.0
 40
2.0
 40
2.0
 40
3.0
 40
3.0
 40
3.0
 40
4.0
 40
4.0
 40
4.0
 40
5.0
 40
5.0
 40
5.0
 40
6.0
 40
6.0
 40
6.0
 40
7.0
 40
7.0
 40
7.0
 40
8.0
 40
8.0
 40
8.0
 40
9.0
 40
9.0
 40
9.0
 40
10.0
 40
10.0
 40
10.0
 40
11.0
 40
11.0
 40
11.0
 40
12.0
 40
12.0
 40
12.0
 40
13.0
 40
13.0
 40
13.0
 40
14.0
 40
14.0
 40
14.0
 40
15.0
 40
15.0
 40
15.0
 40
15.0
 10
207.4985824718083
 20
276.2406850950726
 30
0.0
 10
207.4985824718083
 20
276.1290639277147
 30
0.0
 10
207.4498343385331
 20
276.0663631485198
 30
0.0
 10
207.3242605252554
 20
276.0663631485198
 30
0.0
 10
207.1986867119777
 20
276.0663631485198
 30
0.0
 10
207.1497663238147
 20
276.1290639277147
 30
0.0
 10
207.1497663238147
 20
276.2406850950726
 30
0.0
 10
207.1497663238147
 20
276.2406850950726
 30
0.0
 10
207.1497663238147
 20
278.7800666524662
 30
0.0
 10
207.1497663238147
 20
278.7800666524662
 30
0.0
 10
207.1497663238147
 20
278.7800666524662
 30
0.0
 10
208.3217885810732
 20
278.7800666524662
 30
0.0
 10
208.3217885810732
 20
278.7800666524662
 30
0.0
 10
208.5973964017102
 20
278.7800666524662
 30
0.0
 10
208.8730042223471
 20
278.5847296095898
 30
0.0
 10
208.8730042223471
 20
278.2743263015974
 30
0.0
 10
208.8730042223471
 20
278.2743263015974
 30
0.0
 10
208.8730042223471
 20
278.0335139683159
 30
0.0
 10
208.8730042223471
 20
278.0335139683159
 30
0.0
 10
208.8730042223471
 20
277.7058851715337
 30
0.0
 10
208.6008414994681
 20
277.5384534204968
 30
0.0
 10
208.3217885810732
 20
277.5384534204968
 30
0.0
 10
208.3217885810732
 20
277.5384534204968
 30
0.0
 10
208.0008777249191
 20
277.5384534204968
 30
0.0
 10
208.0008777249191
 20
277.5384534204968
 30
0.0
 10
208.0008777249191
 20
277.5384534204968
 30
0.0
 10
208.7856709941828
 20
276.4150070416255
 30
0.0
 10
208.7856709941828
 20
276.4150070416255
 30
0.0
 10
208.8240838341841
 20
276.3629860654803
 30
0.0
 10
208.8730042223471
 20
276.2964956787516
 30
0.0
 10
208.8730042223471
 20
276.2303498017988
 30
0.0
 10
208.8730042223471
 20
276.1325090254726
 30
0.0
 10
208.7927334445866
 20
276.0663631485198
 30
0.0
 10
208.6950649231484
 20
276.0663631485198
 30
0.0
 10
208.6253016935497
 20
276.0663631485198
 30
0.0
 10
208.5799986580325
 20
276.1083933411669
 30
0.0
 10
208.5415858180312
 20
276.1642039248459
 30
0.0
 10
208.5415858180312
 20
276.1642039248459
 30
0.0
 10
207.5788532495688
 20
277.5384534204968
 30
0.0
 10
207.5788532495688
 20
277.5384534204968
 30
0.0
 10
207.5788532495688
 20
277.5384534204968
 30
0.0
 10
207.4985824718083
 20
277.5384534204968
 30
0.0
 10
207.4985824718083
 20
277.5384534204968
 30
0.0
 10
207.4985824718083
 20
277.5384534204968
 30
0.0
 10
207.4985824718083
 20
276.2406850950726
 30
0.0
 10
207.4985824718083
 20
276.2406850950726
 30
0.0
  0
SPLINE
  5
5F
330
47
100
AcDbEntity
  8
Calque 1
370
     0
100
AcDbSpline
210
0.0
220
0.0
230
1.0
 70
    11
 71
     3
 72
    23
 73
    19
 74
     0
 42
0.0000000001
 43
0.0000000001
 40
0.0
 40
0.0
 40
0.0
 40
0.0
 40
1.0
 40
1.0
 40
1.0
 40
2.0
 40
2.0
 40
2.0
 40
3.0
 40
3.0
 40
3.0
 40
4.0
 40
4.0
 40
4.0
 40
5.0
 40
5.0
 40
5.0
 40
6.0
 40
6.0
 40
6.0
 40
6.0
 10
207.4985824718083
 20
277.8870973136025
 30
0.0
 10
207.4985824718083
 20
277.8870973136025
 30
0.0
 10
208.2730404477981
 20
277.8870973136025
 30
0.0
 10
208.2730404477981
 20
277.8870973136025
 30
0.0
 10
208.3707089692363
 20
277.8870973136025
 30
0.0
 10
208.5241880743535
 20
277.8943320188943
 30
0.0
 10
208.5241880743535
 20
278.0335139683159
 30
0.0
 10
208.5241880743535
 20
278.0335139683159
 30
0.0
 10
208.5241880743535
 20
278.2743263015974
 30
0.0
 10
208.5241880743535
 20
278.2743263015974
 30
0.0
 10
208.5241880743535
 20
278.4138527607949
 30
0.0
 10
208.3812165173981
 20
278.4314227593605
 30
0.0
 10
208.276485545556
 20
278.4314227593605
 30
0.0
 10
208.276485545556
 20
278.4314227593605
 30
0.0
 10
207.4985824718083
 20
278.4314227593605
 30
0.0
 10
207.4985824718083
 20
278.4314227593605
 30
0.0
 10
207.4985824718083
 20
278.4314227593605
 30
0.0
 10
207.4985824718083
 20
277.8870973136025
 30
0.0
 10
207.4985824718083
 20
277.8870973136025
 30
0.0
  0
HATCH
  5
60
330
47
100
AcDbEntity
  8
Calque 1
 62
   179
420
  1842203
100
AcDbHatch
 10
0.0
 20
0.0
 30
0.0
210
0.0
220
0.0
230
1.0
  2
SOLID
 70
     1
 71
     0
 91
        2
 92
        1
 93
        1
 72
     4
 94
        3
 73
     0
 74
     1
 95
       50
 96
       46
 40
0.0
 40
0.0
 40
0.0
 40
0.0
 40
1.0
 40
1.0
 40
1.0
 40
2.0
 40
2.0
 40
2.0
 40
3.0
 40
3.0
 40
3.0
 40
4.0
 40
4.0
 40
4.0
 40
5.0
 40
5.0
 40
5.0
 40
6.0
 40
6.0
 40
6.0
 40
7.0
 40
7.0
 40
7.0
 40
8.0
 40
8.0
 40
8.0
 40
9.0
 40
9.0
 40
9.0
 40
10.0
 40
10.0
 40
10.0
 40
11.0
 40
11.0
 40
11.0
 40
12.0
 40
12.0
 40
12.0
 40
13.0
 40
13.0
 40
13.0
 40
14.0
 40
14.0
 40
14.0
 40
15.0
 40
15.0
 40
15.0
 40
15.0
 10
207.4985824718083
 20
276.2406850950726
 10
207.4985824718083
 20
276.1290639277147
 10
207.4498343385331
 20
276.0663631485198
 10
207.3242605252554
 20
276.0663631485198
 10
207.1986867119777
 20
276.0663631485198
 10
207.1497663238147
 20
276.1290639277147
 10
207.1497663238147
 20
276.2406850950726
 10
207.1497663238147
 20
276.2406850950726
 10
207.1497663238147
 20
278.7800666524662
 10
207.1497663238147
 20
278.7800666524662
 10
207.1497663238147
 20
278.7800666524662
 10
208.3217885810732
 20
278.7800666524662
 10
208.3217885810732
 20
278.7800666524662
 10
208.5973964017102
 20
278.7800666524662
 10
208.8730042223471
 20
278.5847296095898
 10
208.8730042223471
 20
278.2743263015974
 10
208.8730042223471
 20
278.2743263015974
 10
208.8730042223471
 20
278.0335139683159
 10
208.8730042223471
 20
278.0335139683159
 10
208.8730042223471
 20
277.7058851715337
 10
208.6008414994681
 20
277.5384534204968
 10
208.3217885810732
 20
277.5384534204968
 10
208.3217885810732
 20
277.5384534204968
 10
208.0008777249191
 20
277.5384534204968
 10
208.0008777249191
 20
277.5384534204968
 10
208.0008777249191
 20
277.5384534204968
 10
208.7856709941828
 20
276.4150070416255
 10
208.7856709941828
 20
276.4150070416255
 10
208.8240838341841
 20
276.3629860654803
 10
208.8730042223471
 20
276.2964956787516
 10
208.8730042223471
 20
276.2303498017988
 10
208.8730042223471
 20
276.1325090254726
 10
208.7927334445866
 20
276.0663631485198
 10
208.6950649231484
 20
276.0663631485198
 10
208.6253016935497
 20
276.0663631485198
 10
208.5799986580325
 20
276.1083933411669
 10
208.5415858180312
 20
276.1642039248459
 10
208.5415858180312
 20
276.1642039248459
 10
207.5788532495688
 20
277.5384534204968
 10
207.5788532495688
 20
277.5384534204968
 10
207.5788532495688
 20
277.5384534204968
 10
207.4985824718083
 20
277.5384534204968
 10
207.4985824718083
 20
277.5384534204968
 10
207.4985824718083
 20
277.5384534204968
 10
207.4985824718083
 20
276.2406850950726
 10
207.4985824718083
 20
276.2406850950726
 97
        0
 92
        1
 93
        1
 72
     4
 94
        3
 73
     0
 74
     1
 95
       23
 96
       19
 40
0.0
 40
0.0
 40
0.0
 40
0.0
 40
1.0
 40
1.0
 40
1.0
 40
2.0
 40
2.0
 40
2.0
 40
3.0
 40
3.0
 40
3.0
 40
4.0
 40
4.0
 40
4.0
 40
5.0
 40
5.0
 40
5.0
 40
6.0
 40
6.0
 40
6.0
 40
6.0
 10
207.4985824718083
 20
277.8870973136025
 10
207.4985824718083
 20
277.8870973136025
 10
208.2730404477981
 20
277.8870973136025
 10
208.2730404477981
 20
277.8870973136025
 10
208.3707089692363
 20
277.8870973136025
 10
208.5241880743535
 20
277.8943320188943
 10
208.5241880743535
 20
278.0335139683159
 10
208.5241880743535
 20
278.0335139683159
 10
208.5241880743535
 20
278.2743263015974
 10
208.5241880743535
 20
278.2743263015974
 10
208.5241880743535
 20
278.4138527607949
 10
208.3812165173981
 20
278.4314227593605
 10
208.276485545556
 20
278.4314227593605
 10
208.276485545556
 20
278.4314227593605
 10
207.4985824718083
 20
278.4314227593605
 10
207.4985824718083
 20
278.4314227593605
 10
207.4985824718083
 20
278.4314227593605
 10
207.4985824718083
 20
277.8870973136025
 10
207.4985824718083
 20
277.8870973136025
 97
        0
 75
     2
 76
     1
 98
        0
  0
SPLINE
  5
61
330
47
100
AcDbEntity
  8
Calque 1
370
     0
100
AcDbSpline
210
0.0
220
0.0
230
1.0
 70
    11
 71
     3
 72
    50
 73
    46
 74
     0
 42
0.0000000001
 43
0.0000000001
 40
0.0
 40
0.0
 40
0.0
 40
0.0
 40
1.0
 40
1.0
 40
1.0
 40
2.0
 40
2.0
 40
2.0
 40
3.0
 40
3.0
 40
3.0
 40
4.0
 40
4.0
 40
4.0
 40
5.0
 40
5.0
 40
5.0
 40
6.0
 40
6.0
 40
6.0
 40
7.0
 40
7.0
 40
7.0
 40
8.0
 40
8.0
 40
8.0
 40
9.0
 40
9.0
 40
9.0
 40
10.0
 40
10.0
 40
10.0
 40
11.0
 40
11.0
 40
11.0
 40
12.0
 40
12.0
 40
12.0
 40
13.0
 40
13.0
 40
13.0
 40
14.0
 40
14.0
 40
14.0
 40
15.0
 40
15.0
 40
15.0
 40
15.0
 10
212.5117164743062
 20
278.4314227593605
 30
0.0
 10
212.5117164743062
 20
278.4314227593605
 30
0.0
 10
212.3826975632706
 20
278.4314227593605
 30
0.0
 10
212.3826975632706
 20
278.4314227593605
 30
0.0
 10
212.2674590432668
 20
278.4314227593605
 30
0.0
 10
212.1697905218286
 20
278.4731084422318
 30
0.0
 10
212.1697905218286
 20
278.6057447059134
 30
0.0
 10
212.1697905218286
 20
278.731490774079
 30
0.0
 10
212.2640139455088
 20
278.7800666524662
 30
0.0
 10
212.3721900151088
 20
278.7800666524662
 30
0.0
 10
212.3721900151088
 20
278.7800666524662
 30
0.0
 10
212.9545837910922
 20
278.7800666524662
 30
0.0
 10
212.9545837910922
 20
278.7800666524662
 30
0.0
 10
213.2267465139712
 20
278.7800666524662
 30
0.0
 10
213.3628278754107
 20
278.6684454851082
 30
0.0
 10
213.4813392382846
 20
278.4314227593605
 30
0.0
 10
213.4813392382846
 20
278.4314227593605
 30
0.0
 10
213.788297448519
 20
277.8175063388917
 30
0.0
 10
213.788297448519
 20
277.8175063388917
 30
0.0
 10
213.8580606781177
 20
277.6745347819363
 30
0.0
 10
213.893028420361
 20
277.5732489078522
 30
0.0
 10
213.893028420361
 20
277.4127073523312
 30
0.0
 10
213.893028420361
 20
277.2731808931338
 30
0.0
 10
213.8546155803597
 20
277.1546695302599
 30
0.0
 10
213.7917425462769
 20
277.0289234620943
 30
0.0
 10
213.7917425462769
 20
277.0289234620943
 30
0.0
 10
213.4744490427686
 20
276.3943364550777
 30
0.0
 10
213.4744490427686
 20
276.3943364550777
 30
0.0
 10
213.3523203272489
 20
276.1466339262803
 30
0.0
 10
213.1953961243737
 20
276.0663631485198
 30
0.0
 10
212.9232334014948
 20
276.0663631485198
 30
0.0
 10
212.9232334014948
 20
276.0663631485198
 30
0.0
 10
212.3442847232693
 20
276.0663631485198
 30
0.0
 10
212.3442847232693
 20
276.0663631485198
 30
0.0
 10
212.253506397347
 20
276.0663631485198
 30
0.0
 10
212.1697905218286
 20
276.1152835366829
 30
0.0
 10
212.1697905218286
 20
276.2406850950726
 30
0.0
 10
212.1697905218286
 20
276.3664311632382
 30
0.0
 10
212.253506397347
 20
276.4150070416255
 30
0.0
 10
212.3442847232693
 20
276.4150070416255
 30
0.0
 10
212.3442847232693
 20
276.4150070416255
 30
0.0
 10
212.5117164743062
 20
276.4150070416255
 30
0.0
 10
212.5117164743062
 20
276.4150070416255
 30
0.0
 10
212.5117164743062
 20
276.4150070416255
 30
0.0
 10
212.5117164743062
 20
278.4314227593605
 30
0.0
 10
212.5117164743062
 20
278.4314227593605
 30
0.0
  0
SPLINE
  5
62
330
47
100
AcDbEntity
  8
Calque 1
370
     0
100
AcDbSpline
210
0.0
220
0.0
230
1.0
 70
    11
 71
     3
 72
    32
 73
    28
 74
     0
 42
0.0000000001
 43
0.0000000001
 40
0.0
 40
0.0
 40
0.0
 40
0.0
 40
1.0
 40
1.0
 40
1.0
 40
2.0
 40
2.0
 40
2.0
 40
3.0
 40
3.0
 40
3.0
 40
4.0
 40
4.0
 40
4.0
 40
5.0
 40
5.0
 40
5.0
 40
6.0
 40
6.0
 40
6.0
 40
7.0
 40
7.0
 40
7.0
 40
8.0
 40
8.0
 40
8.0
 40
9.0
 40
9.0
 40
9.0
 40
9.0
 10
212.8605326222999
 20
276.4150070416255
 30
0.0
 10
212.8605326222999
 20
276.4150070416255
 30
0.0
 10
212.9266784992527
 20
276.4150070416255
 30
0.0
 10
212.9266784992527
 20
276.4150070416255
 30
0.0
 10
213.073267408854
 20
276.4150070416255
 30
0.0
 10
213.1082351510973
 20
276.4325770401911
 30
0.0
 10
213.1709359302922
 20
276.5617682061147
 30
0.0
 10
213.1709359302922
 20
276.5617682061147
 30
0.0
 10
213.4778941405266
 20
277.1825748220994
 30
0.0
 10
213.4778941405266
 20
277.1825748220994
 30
0.0
 10
213.5163069805279
 20
277.2628455998599
 30
0.0
 10
213.5442122723674
 20
277.3221012812968
 30
0.0
 10
213.5442122723674
 20
277.4092622545733
 30
0.0
 10
213.5442122723674
 20
277.5277736174471
 30
0.0
 10
213.5057994323661
 20
277.5942640041758
 30
0.0
 10
213.456879044203
 20
277.695205368484
 30
0.0
 10
213.456879044203
 20
277.695205368484
 30
0.0
 10
213.1674908325342
 20
278.2850061046471
 30
0.0
 10
213.1674908325342
 20
278.2850061046471
 30
0.0
 10
213.0941102502897
 20
278.4348678571184
 30
0.0
 10
213.0627598606922
 20
278.4314227593605
 30
0.0
 10
212.9023905600591
 20
278.4314227593605
 30
0.0
 10
212.9023905600591
 20
278.4314227593605
 30
0.0
 10
212.8605326222999
 20
278.4314227593605
 30
0.0
 10
212.8605326222999
 20
278.4314227593605
 30
0.0
 10
212.8605326222999
 20
278.4314227593605
 30
0.0
 10
212.8605326222999
 20
276.4150070416255
 30
0.0
 10
212.8605326222999
 20
276.4150070416255
 30
0.0
  0
HATCH
  5
63
330
47
100
AcDbEntity
  8
Calque 1
 62
   179
420
  1842203
100
AcDbHatch
 10
0.0
 20
0.0
 30
0.0
210
0.0
220
0.0
230
1.0
  2
SOLID
 70
     1
 71
     0
 91
        2
 92
        1
 93
        1
 72
     4
 94
        3
 73
     0
 74
     1
 95
       50
 96
       46
 40
0.0
 40
0.0
 40
0.0
 40
0.0
 40
1.0
 40
1.0
 40
1.0
 40
2.0
 40
2.0
 40
2.0
 40
3.0
 40
3.0
 40
3.0
 40
4.0
 40
4.0
 40
4.0
 40
5.0
 40
5.0
 40
5.0
 40
6.0
 40
6.0
 40
6.0
 40
7.0
 40
7.0
 40
7.0
 40
8.0
 40
8.0
 40
8.0
 40
9.0
 40
9.0
 40
9.0
 40
10.0
 40
10.0
 40
10.0
 40
11.0
 40
11.0
 40
11.0
 40
12.0
 40
12.0
 40
12.0
 40
13.0
 40
13.0
 40
13.0
 40
14.0
 40
14.0
 40
14.0
 40
15.0
 40
15.0
 40
15.0
 40
15.0
 10
212.5117164743062
 20
278.4314227593605
 10
212.5117164743062
 20
278.4314227593605
 10
212.3826975632706
 20
278.4314227593605
 10
212.3826975632706
 20
278.4314227593605
 10
212.2674590432668
 20
278.4314227593605
 10
212.1697905218286
 20
278.4731084422318
 10
212.1697905218286
 20
278.6057447059134
 10
212.1697905218286
 20
278.731490774079
 10
212.2640139455088
 20
278.7800666524662
 10
212.3721900151088
 20
278.7800666524662
 10
212.3721900151088
 20
278.7800666524662
 10
212.9545837910922
 20
278.7800666524662
 10
212.9545837910922
 20
278.7800666524662
 10
213.2267465139712
 20
278.7800666524662
 10
213.3628278754107
 20
278.6684454851082
 10
213.4813392382846
 20
278.4314227593605
 10
213.4813392382846
 20
278.4314227593605
 10
213.788297448519
 20
277.8175063388917
 10
213.788297448519
 20
277.8175063388917
 10
213.8580606781177
 20
277.6745347819363
 10
213.893028420361
 20
277.5732489078522
 10
213.893028420361
 20
277.4127073523312
 10
213.893028420361
 20
277.2731808931338
 10
213.8546155803597
 20
277.1546695302599
 10
213.7917425462769
 20
277.0289234620943
 10
213.7917425462769
 20
277.0289234620943
 10
213.4744490427686
 20
276.3943364550777
 10
213.4744490427686
 20
276.3943364550777
 10
213.3523203272489
 20
276.1466339262803
 10
213.1953961243737
 20
276.0663631485198
 10
212.9232334014948
 20
276.0663631485198
 10
212.9232334014948
 20
276.0663631485198
 10
212.3442847232693
 20
276.0663631485198
 10
212.3442847232693
 20
276.0663631485198
 10
212.253506397347
 20
276.0663631485198
 10
212.1697905218286
 20
276.1152835366829
 10
212.1697905218286
 20
276.2406850950726
 10
212.1697905218286
 20
276.3664311632382
 10
212.253506397347
 20
276.4150070416255
 10
212.3442847232693
 20
276.4150070416255
 10
212.3442847232693
 20
276.4150070416255
 10
212.5117164743062
 20
276.4150070416255
 10
212.5117164743062
 20
276.4150070416255
 10
212.5117164743062
 20
276.4150070416255
 10
212.5117164743062
 20
278.4314227593605
 10
212.5117164743062
 20
278.4314227593605
 97
        0
 92
        1
 93
        1
 72
     4
 94
        3
 73
     0
 74
     1
 95
       32
 96
       28
 40
0.0
 40
0.0
 40
0.0
 40
0.0
 40
1.0
 40
1.0
 40
1.0
 40
2.0
 40
2.0
 40
2.0
 40
3.0
 40
3.0
 40
3.0
 40
4.0
 40
4.0
 40
4.0
 40
5.0
 40
5.0
 40
5.0
 40
6.0
 40
6.0
 40
6.0
 40
7.0
 40
7.0
 40
7.0
 40
8.0
 40
8.0
 40
8.0
 40
9.0
 40
9.0
 40
9.0
 40
9.0
 10
212.8605326222999
 20
276.4150070416255
 10
212.8605326222999
 20
276.4150070416255
 10
212.9266784992527
 20
276.4150070416255
 10
212.9266784992527
 20
276.4150070416255
 10
213.073267408854
 20
276.4150070416255
 10
213.1082351510973
 20
276.4325770401911
 10
213.1709359302922
 20
276.5617682061147
 10
213.1709359302922
 20
276.5617682061147
 10
213.4778941405266
 20
277.1825748220994
 10
213.4778941405266
 20
277.1825748220994
 10
213.5163069805279
 20
277.2628455998599
 10
213.5442122723674
 20
277.3221012812968
 10
213.5442122723674
 20
277.4092622545733
 10
213.5442122723674
 20
277.5277736174471
 10
213.5057994323661
 20
277.5942640041758
 10
213.456879044203
 20
277.695205368484
 10
213.456879044203
 20
277.695205368484
 10
213.1674908325342
 20
278.2850061046471
 10
213.1674908325342
 20
278.2850061046471
 10
213.0941102502897
 20
278.4348678571184
 10
213.0627598606922
 20
278.4314227593605
 10
212.9023905600591
 20
278.4314227593605
 10
212.9023905600591
 20
278.4314227593605
 10
212.8605326222999
 20
278.4314227593605
 10
212.8605326222999
 20
278.4314227593605
 10
212.8605326222999
 20
278.4314227593605
 10
212.8605326222999
 20
276.4150070416255
 10
212.8605326222999
 20
276.4150070416255
 97
        0
 75
     2
 76
     1
 98
        0
  0
SPLINE
  5
64
330
47
100
AcDbEntity
  8
Calque 1
370
     0
100
AcDbSpline
210
0.0
220
0.0
230
1.0
 70
    11
 71
     3
 72
    50
 73
    46
 74
     0
 42
0.0000000001
 43
0.0000000001
 40
0.0
 40
0.0
 40
0.0
 40
0.0
 40
1.0
 40
1.0
 40
1.0
 40
2.0
 40
2.0
 40
2.0
 40
3.0
 40
3.0
 40
3.0
 40
4.0
 40
4.0
 40
4.0
 40
5.0
 40
5.0
 40
5.0
 40
6.0
 40
6.0
 40
6.0
 40
7.0
 40
7.0
 40
7.0
 40
8.0
 40
8.0
 40
8.0
 40
9.0
 40
9.0
 40
9.0
 40
10.0
 40
10.0
 40
10.0
 40
11.0
 40
11.0
 40
11.0
 40
12.0
 40
12.0
 40
12.0
 40
13.0
 40
13.0
 40
13.0
 40
14.0
 40
14.0
 40
14.0
 40
15.0
 40
15.0
 40
15.0
 40
15.0
 10
216.2286324453711
 20
276.4150070416255
 30
0.0
 10
216.3194107712934
 20
276.4150070416255
 30
0.0
 10
216.4031266468119
 20
276.3664311632382
 30
0.0
 10
216.4031266468119
 20
276.2406850950726
 30
0.0
 10
216.4031266468119
 20
276.1152835366829
 30
0.0
 10
216.3194107712934
 20
276.0663631485198
 30
0.0
 10
216.2286324453711
 20
276.0663631485198
 30
0.0
 10
216.2286324453711
 20
276.0663631485198
 30
0.0
 10
214.6798887482794
 20
276.0663631485198
 30
0.0
 10
214.6798887482794
 20
276.0663631485198
 30
0.0
 10
214.6798887482794
 20
276.0663631485198
 30
0.0
 10
214.6798887482794
 20
278.7800666524662
 30
0.0
 10
214.6798887482794
 20
278.7800666524662
 30
0.0
 10
214.6798887482794
 20
278.7800666524662
 30
0.0
 10
216.2286324453711
 20
278.7800666524662
 30
0.0
 10
216.2286324453711
 20
278.7800666524662
 30
0.0
 10
216.3194107712934
 20
278.7800666524662
 30
0.0
 10
216.4031266468119
 20
278.731490774079
 30
0.0
 10
216.4031266468119
 20
278.6057447059134
 30
0.0
 10
216.4031266468119
 20
278.4799986377477
 30
0.0
 10
216.3194107712934
 20
278.4314227593605
 30
0.0
 10
216.2286324453711
 20
278.4314227593605
 30
0.0
 10
216.2286324453711
 20
278.4314227593605
 30
0.0
 10
215.028704896273
 20
278.4314227593605
 30
0.0
 10
215.028704896273
 20
278.4314227593605
 30
0.0
 10
215.028704896273
 20
278.4314227593605
 30
0.0
 10
215.028704896273
 20
277.5977091019337
 30
0.0
 10
215.028704896273
 20
277.5977091019337
 30
0.0
 10
215.028704896273
 20
277.5977091019337
 30
0.0
 10
215.5415076975457
 20
277.5977091019337
 30
0.0
 10
215.5415076975457
 20
277.5977091019337
 30
0.0
 10
215.63211376858
 20
277.5977091019337
 30
0.0
 10
215.7158296440985
 20
277.5487887137707
 30
0.0
 10
215.7158296440985
 20
277.4233871553809
 30
0.0
 10
215.7158296440985
 20
277.2976410872153
 30
0.0
 10
215.63211376858
 20
277.2487206990522
 30
0.0
 10
215.5415076975457
 20
277.2487206990522
 30
0.0
 10
215.5415076975457
 20
277.2487206990522
 30
0.0
 10
215.028704896273
 20
277.2487206990522
 30
0.0
 10
215.028704896273
 20
277.2487206990522
 30
0.0
 10
215.028704896273
 20
277.2487206990522
 30
0.0
 10
215.028704896273
 20
276.4150070416255
 30
0.0
 10
215.028704896273
 20
276.4150070416255
 30
0.0
 10
215.028704896273
 20
276.4150070416255
 30
0.0
 10
216.2286324453711
 20
276.4150070416255
 30
0.0
 10
216.2286324453711
 20
276.4150070416255
 30
0.0
  0
HATCH
  5
65
330
47
100
AcDbEntity
  8
Calque 1
 62
   179
420
  1842203
100
AcDbHatch
 10
0.0
 20
0.0
 30
0.0
210
0.0
220
0.0
230
1.0
  2
SOLID
 70
     1
 71
     0
 91
        1
 92
        1
 93
        1
 72
     4
 94
        3
 73
     0
 74
     1
 95
       50
 96
       46
 40
0.0
 40
0.0
 40
0.0
 40
0.0
 40
1.0
 40
1.0
 40
1.0
 40
2.0
 40
2.0
 40
2.0
 40
3.0
 40
3.0
 40
3.0
 40
4.0
 40
4.0
 40
4.0
 40
5.0
 40
5.0
 40
5.0
 40
6.0
 40
6.0
 40
6.0
 40
7.0
 40
7.0
 40
7.0
 40
8.0
 40
8.0
 40
8.0
 40
9.0
 40
9.0
 40
9.0
 40
10.0
 40
10.0
 40
10.0
 40
11.0
 40
11.0
 40
11.0
 40
12.0
 40
12.0
 40
12.0
 40
13.0
 40
13.0
 40
13.0
 40
14.0
 40
14.0
 40
14.0
 40
15.0
 40
15.0
 40
15.0
 40
15.0
 10
216.2286324453711
 20
276.4150070416255
 10
216.3194107712934
 20
276.4150070416255
 10
216.4031266468119
 20
276.3664311632382
 10
216.4031266468119
 20
276.2406850950726
 10
216.4031266468119
 20
276.1152835366829
 10
216.3194107712934
 20
276.0663631485198
 10
216.2286324453711
 20
276.0663631485198
 10
216.2286324453711
 20
276.0663631485198
 10
214.6798887482794
 20
276.0663631485198
 10
214.6798887482794
 20
276.0663631485198
 10
214.6798887482794
 20
276.0663631485198
 10
214.6798887482794
 20
278.7800666524662
 10
214.6798887482794
 20
278.7800666524662
 10
214.6798887482794
 20
278.7800666524662
 10
216.2286324453711
 20
278.7800666524662
 10
216.2286324453711
 20
278.7800666524662
 10
216.3194107712934
 20
278.7800666524662
 10
216.4031266468119
 20
278.731490774079
 10
216.4031266468119
 20
278.6057447059134
 10
216.4031266468119
 20
278.4799986377477
 10
216.3194107712934
 20
278.4314227593605
 10
216.2286324453711
 20
278.4314227593605
 10
216.2286324453711
 20
278.4314227593605
 10
215.028704896273
 20
278.4314227593605
 10
215.028704896273
 20
278.4314227593605
 10
215.028704896273
 20
278.4314227593605
 10
215.028704896273
 20
277.5977091019337
 10
215.028704896273
 20
277.5977091019337
 10
215.028704896273
 20
277.5977091019337
 10
215.5415076975457
 20
277.5977091019337
 10
215.5415076975457
 20
277.5977091019337
 10
215.63211376858
 20
277.5977091019337
 10
215.7158296440985
 20
277.5487887137707
 10
215.7158296440985
 20
277.4233871553809
 10
215.7158296440985
 20
277.2976410872153
 10
215.63211376858
 20
277.2487206990522
 10
215.5415076975457
 20
277.2487206990522
 10
215.5415076975457
 20
277.2487206990522
 10
215.028704896273
 20
277.2487206990522
 10
215.028704896273
 20
277.2487206990522
 10
215.028704896273
 20
277.2487206990522
 10
215.028704896273
 20
276.4150070416255
 10
215.028704896273
 20
276.4150070416255
 10
215.028704896273
 20
276.4150070416255
 10
216.2286324453711
 20
276.4150070416255
 10
216.2286324453711
 20
276.4150070416255
 97
        0
 75
     2
 76
     1
 98
        0
  0
SPLINE
  5
66
330
47
100
AcDbEntity
  8
Calque 1
370
     0
100
AcDbSpline
210
0.0
220
0.0
230
1.0
 70
    11
 71
     3
 72
    53
 73
    49
 74
     0
 42
0.0000000001
 43
0.0000000001
 40
0.0
 40
0.0
 40
0.0
 40
0.0
 40
1.0
 40
1.0
 40
1.0
 40
2.0
 40
2.0
 40
2.0
 40
3.0
 40
3.0
 40
3.0
 40
4.0
 40
4.0
 40
4.0
 40
5.0
 40
5.0
 40
5.0
 40
6.0
 40
6.0
 40
6.0
 40
7.0
 40
7.0
 40
7.0
 40
8.0
 40
8.0
 40
8.0
 40
9.0
 40
9.0
 40
9.0
 40
10.0
 40
10.0
 40
10.0
 40
11.0
 40
11.0
 40
11.0
 40
12.0
 40
12.0
 40
12.0
 40
13.0
 40
13.0
 40
13.0
 40
14.0
 40
14.0
 40
14.0
 40
15.0
 40
15.0
 40
15.0
 40
16.0
 40
16.0
 40
16.0
 40
16.0
 10
221.248656643385
 20
276.659264472665
 30
0.0
 10
221.248656643385
 20
276.5266282089835
 30
0.0
 10
221.248656643385
 20
276.4432568432408
 30
0.0
 10
221.1825107664321
 20
276.3244009705911
 30
0.0
 10
221.0638271486703
 20
276.1256188299567
 30
0.0
 10
220.8893329472296
 20
276.0663631485198
 30
0.0
 10
220.6731530629175
 20
276.0663631485198
 30
0.0
 10
220.6731530629175
 20
276.0663631485198
 30
0.0
 10
220.4707535696372
 20
276.0663631485198
 30
0.0
 10
220.4707535696372
 20
276.0663631485198
 30
0.0
 10
220.2754165267608
 20
276.0663631485198
 30
0.0
 10
220.1079847757239
 20
276.1011586358752
 30
0.0
 10
219.9825832173341
 20
276.2685903869121
 30
0.0
 10
219.8952499891697
 20
276.383656652028
 30
0.0
 10
219.8744071477341
 20
276.4814974283541
 30
0.0
 10
219.8744071477341
 20
276.6210238875516
 30
0.0
 10
219.8744071477341
 20
276.6210238875516
 30
0.0
 10
219.8744071477341
 20
277.1267642384204
 30
0.0
 10
219.8744071477341
 20
277.1267642384204
 30
0.0
 10
219.8744071477341
 20
277.2383854057783
 30
0.0
 10
219.9231552810092
 20
277.3010861849733
 30
0.0
 10
220.0487290942869
 20
277.3010861849733
 30
0.0
 10
220.1743029075646
 20
277.3010861849733
 30
0.0
 10
220.2232232957277
 20
277.2383854057783
 30
0.0
 10
220.2232232957277
 20
277.1267642384204
 30
0.0
 10
220.2232232957277
 20
277.1267642384204
 30
0.0
 10
220.2232232957277
 20
276.6733893734726
 30
0.0
 10
220.2232232957277
 20
276.6733893734726
 30
0.0
 10
220.2232232957277
 20
276.4708176253045
 30
0.0
 10
220.2650812334869
 20
276.4150070416255
 30
0.0
 10
220.4707535696372
 20
276.4150070416255
 30
0.0
 10
220.4707535696372
 20
276.4150070416255
 30
0.0
 10
220.6626455147557
 20
276.4150070416255
 30
0.0
 10
220.6626455147557
 20
276.4150070416255
 30
0.0
 10
220.809234424357
 20
276.4150070416255
 30
0.0
 10
220.8998404953914
 20
276.4360221379491
 30
0.0
 10
220.8998404953914
 20
276.603453888986
 30
0.0
 10
220.8998404953914
 20
276.603453888986
 30
0.0
 10
220.8998404953914
 20
278.6057447059134
 30
0.0
 10
220.8998404953914
 20
278.6057447059134
 30
0.0
 10
220.8998404953914
 20
278.7173658732713
 30
0.0
 10
220.9487608835544
 20
278.7800666524662
 30
0.0
 10
221.0743346968321
 20
278.7800666524662
 30
0.0
 10
221.1999085101098
 20
278.7800666524662
 30
0.0
 10
221.248656643385
 20
278.7173658732713
 30
0.0
 10
221.248656643385
 20
278.6057447059134
 30
0.0
 10
221.248656643385
 20
278.6057447059134
 30
0.0
 10
221.248656643385
 20
276.659264472665
 30
0.0
 10
221.248656643385
 20
276.659264472665
 30
0.0
  0
HATCH
  5
67
330
47
100
AcDbEntity
  8
Calque 1
 62
   179
420
  1842203
100
AcDbHatch
 10
0.0
 20
0.0
 30
0.0
210
0.0
220
0.0
230
1.0
  2
SOLID
 70
     1
 71
     0
 91
        1
 92
        1
 93
        1
 72
     4
 94
        3
 73
     0
 74
     1
 95
       53
 96
       49
 40
0.0
 40
0.0
 40
0.0
 40
0.0
 40
1.0
 40
1.0
 40
1.0
 40
2.0
 40
2.0
 40
2.0
 40
3.0
 40
3.0
 40
3.0
 40
4.0
 40
4.0
 40
4.0
 40
5.0
 40
5.0
 40
5.0
 40
6.0
 40
6.0
 40
6.0
 40
7.0
 40
7.0
 40
7.0
 40
8.0
 40
8.0
 40
8.0
 40
9.0
 40
9.0
 40
9.0
 40
10.0
 40
10.0
 40
10.0
 40
11.0
 40
11.0
 40
11.0
 40
12.0
 40
12.0
 40
12.0
 40
13.0
 40
13.0
 40
13.0
 40
14.0
 40
14.0
 40
14.0
 40
15.0
 40
15.0
 40
15.0
 40
16.0
 40
16.0
 40
16.0
 40
16.0
 10
221.248656643385
 20
276.659264472665
 10
221.248656643385
 20
276.5266282089835
 10
221.248656643385
 20
276.4432568432408
 10
221.1825107664321
 20
276.3244009705911
 10
221.0638271486703
 20
276.1256188299567
 10
220.8893329472296
 20
276.0663631485198
 10
220.6731530629175
 20
276.0663631485198
 10
220.6731530629175
 20
276.0663631485198
 10
220.4707535696372
 20
276.0663631485198
 10
220.4707535696372
 20
276.0663631485198
 10
220.2754165267608
 20
276.0663631485198
 10
220.1079847757239
 20
276.1011586358752
 10
219.9825832173341
 20
276.2685903869121
 10
219.8952499891697
 20
276.383656652028
 10
219.8744071477341
 20
276.4814974283541
 10
219.8744071477341
 20
276.6210238875516
 10
219.8744071477341
 20
276.6210238875516
 10
219.8744071477341
 20
277.1267642384204
 10
219.8744071477341
 20
277.1267642384204
 10
219.8744071477341
 20
277.2383854057783
 10
219.9231552810092
 20
277.3010861849733
 10
220.0487290942869
 20
277.3010861849733
 10
220.1743029075646
 20
277.3010861849733
 10
220.2232232957277
 20
277.2383854057783
 10
220.2232232957277
 20
277.1267642384204
 10
220.2232232957277
 20
277.1267642384204
 10
220.2232232957277
 20
276.6733893734726
 10
220.2232232957277
 20
276.6733893734726
 10
220.2232232957277
 20
276.4708176253045
 10
220.2650812334869
 20
276.4150070416255
 10
220.4707535696372
 20
276.4150070416255
 10
220.4707535696372
 20
276.4150070416255
 10
220.6626455147557
 20
276.4150070416255
 10
220.6626455147557
 20
276.4150070416255
 10
220.809234424357
 20
276.4150070416255
 10
220.8998404953914
 20
276.4360221379491
 10
220.8998404953914
 20
276.603453888986
 10
220.8998404953914
 20
276.603453888986
 10
220.8998404953914
 20
278.6057447059134
 10
220.8998404953914
 20
278.6057447059134
 10
220.8998404953914
 20
278.7173658732713
 10
220.9487608835544
 20
278.7800666524662
 10
221.0743346968321
 20
278.7800666524662
 10
221.1999085101098
 20
278.7800666524662
 10
221.248656643385
 20
278.7173658732713
 10
221.248656643385
 20
278.6057447059134
 10
221.248656643385
 20
278.6057447059134
 10
221.248656643385
 20
276.659264472665
 10
221.248656643385
 20
276.659264472665
 97
        0
 75
     2
 76
     1
 98
        0
  0
SPLINE
  5
68
330
47
100
AcDbEntity
  8
Calque 1
370
     0
100
AcDbSpline
210
0.0
220
0.0
230
1.0
 70
    11
 71
     3
 72
    41
 73
    37
 74
     0
 42
0.0000000001
 43
0.0000000001
 40
0.0
 40
0.0
 40
0.0
 40
0.0
 40
1.0
 40
1.0
 40
1.0
 40
2.0
 40
2.0
 40
2.0
 40
3.0
 40
3.0
 40
3.0
 40
4.0
 40
4.0
 40
4.0
 40
5.0
 40
5.0
 40
5.0
 40
6.0
 40
6.0
 40
6.0
 40
7.0
 40
7.0
 40
7.0
 40
8.0
 40
8.0
 40
8.0
 40
9.0
 40
9.0
 40
9.0
 40
10.0
 40
10.0
 40
10.0
 40
11.0
 40
11.0
 40
11.0
 40
12.0
 40
12.0
 40
12.0
 40
12.0
 10
223.8422984904664
 20
277.7999363403261
 30
0.0
 10
223.9086166223072
 20
277.6638549788866
 30
0.0
 10
223.9330768163887
 20
277.5629136145783
 30
0.0
 10
223.9330768163887
 20
277.4127073523312
 30
0.0
 10
223.9330768163887
 20
277.2452756012943
 30
0.0
 10
223.8876015259836
 20
277.1405446294522
 30
0.0
 10
223.8180105512728
 20
276.9975730724968
 30
0.0
 10
223.8180105512728
 20
276.9975730724968
 30
0.0
 10
223.4969274402308
 20
276.3557513601885
 30
0.0
 10
223.4969274402308
 20
276.3557513601885
 30
0.0
 10
223.4132115647123
 20
276.1883196091516
 30
0.0
 10
223.2736851055149
 20
276.0663631485198
 30
0.0
 10
223.0714578671225
 20
276.0663631485198
 30
0.0
 10
222.8692306287302
 20
276.0663631485198
 30
0.0
 10
222.7297041695327
 20
276.1883196091516
 30
0.0
 10
222.6459882940142
 20
276.3557513601885
 30
0.0
 10
222.6459882940142
 20
276.3557513601885
 30
0.0
 10
222.3249051829722
 20
276.9975730724968
 30
0.0
 10
222.3249051829722
 20
276.9975730724968
 30
0.0
 10
222.2553142082614
 20
277.1405446294522
 30
0.0
 10
222.2098389178563
 20
277.2452756012943
 30
0.0
 10
222.2098389178563
 20
277.4127073523312
 30
0.0
 10
222.2098389178563
 20
277.5629136145783
 30
0.0
 10
222.2342991119378
 20
277.6638549788866
 30
0.0
 10
222.3006172437786
 20
277.7999363403261
 30
0.0
 10
222.3006172437786
 20
277.7999363403261
 30
0.0
 10
222.6494333917722
 20
278.4941235385554
 30
0.0
 10
222.6494333917722
 20
278.4941235385554
 30
0.0
 10
222.7331492672907
 20
278.6581101918343
 30
0.0
 10
222.8761208242461
 20
278.7800666524662
 30
0.0
 10
223.0714578671225
 20
278.7800666524662
 30
0.0
 10
223.2667949099989
 20
278.7800666524662
 30
0.0
 10
223.4097664669544
 20
278.6581101918343
 30
0.0
 10
223.4934823424728
 20
278.4941235385554
 30
0.0
 10
223.4934823424728
 20
278.4941235385554
 30
0.0
 10
223.8422984904664
 20
277.7999363403261
 30
0.0
 10
223.8422984904664
 20
277.7999363403261
 30
0.0
  0
SPLINE
  5
69
330
47
100
AcDbEntity
  8
Calque 1
370
     0
100
AcDbSpline
210
0.0
220
0.0
230
1.0
 70
    11
 71
     3
 72
    41
 73
    37
 74
     0
 42
0.0000000001
 43
0.0000000001
 40
0.0
 40
0.0
 40
0.0
 40
0.0
 40
1.0
 40
1.0
 40
1.0
 40
2.0
 40
2.0
 40
2.0
 40
3.0
 40
3.0
 40
3.0
 40
4.0
 40
4.0
 40
4.0
 40
5.0
 40
5.0
 40
5.0
 40
6.0
 40
6.0
 40
6.0
 40
7.0
 40
7.0
 40
7.0
 40
8.0
 40
8.0
 40
8.0
 40
9.0
 40
9.0
 40
9.0
 40
10.0
 40
10.0
 40
10.0
 40
11.0
 40
11.0
 40
11.0
 40
12.0
 40
12.0
 40
12.0
 40
12.0
 10
223.1899692299964
 20
278.3266917875184
 30
0.0
 10
223.1620639381569
 20
278.3825023711974
 30
0.0
 10
223.1446661944792
 20
278.4314227593605
 30
0.0
 10
223.0714578671225
 20
278.4314227593605
 30
0.0
 10
222.9982495397658
 20
278.4314227593605
 30
0.0
 10
222.9808517960881
 20
278.3825023711974
 30
0.0
 10
222.9529465042486
 20
278.3266917875184
 30
0.0
 10
222.9529465042486
 20
278.3266917875184
 30
0.0
 10
222.6389258436104
 20
277.695205368484
 30
0.0
 10
222.6389258436104
 20
277.695205368484
 30
0.0
 10
222.5865603576894
 20
277.5942640041758
 30
0.0
 10
222.5586550658499
 20
277.5277736174471
 30
0.0
 10
222.5586550658499
 20
277.4127073523312
 30
0.0
 10
222.5586550658499
 20
277.3221012812968
 30
0.0
 10
222.5796701621735
 20
277.2594005021019
 30
0.0
 10
222.6180830021748
 20
277.1825748220994
 30
0.0
 10
222.6180830021748
 20
277.1825748220994
 30
0.0
 10
222.9529465042486
 20
276.5197380134675
 30
0.0
 10
222.9529465042486
 20
276.5197380134675
 30
0.0
 10
222.9772344434423
 20
276.4708176253045
 30
0.0
 10
223.0016946375238
 20
276.4150070416255
 30
0.0
 10
223.0714578671225
 20
276.4150070416255
 30
0.0
 10
223.1412210967212
 20
276.4150070416255
 30
0.0
 10
223.1656812908028
 20
276.4708176253045
 30
0.0
 10
223.1899692299964
 20
276.5197380134675
 30
0.0
 10
223.1899692299964
 20
276.5197380134675
 30
0.0
 10
223.5248327320703
 20
277.1825748220994
 30
0.0
 10
223.5248327320703
 20
277.1825748220994
 30
0.0
 10
223.5632455720715
 20
277.2594005021019
 30
0.0
 10
223.5842606683951
 20
277.3221012812968
 30
0.0
 10
223.5842606683951
 20
277.4127073523312
 30
0.0
 10
223.5842606683951
 20
277.5277736174471
 30
0.0
 10
223.5563553765556
 20
277.5942640041758
 30
0.0
 10
223.5039898906346
 20
277.695205368484
 30
0.0
 10
223.5039898906346
 20
277.695205368484
 30
0.0
 10
223.1899692299964
 20
278.3266917875184
 30
0.0
 10
223.1899692299964
 20
278.3266917875184
 30
0.0
  0
HATCH
  5
6A
330
47
100
AcDbEntity
  8
Calque 1
 62
   179
420
  1842203
100
AcDbHatch
 10
0.0
 20
0.0
 30
0.0
210
0.0
220
0.0
230
1.0
  2
SOLID
 70
     1
 71
     0
 91
        2
 92
        1
 93
        1
 72
     4
 94
        3
 73
     0
 74
     1
 95
       41
 96
       37
 40
0.0
 40
0.0
 40
0.0
 40
0.0
 40
1.0
 40
1.0
 40
1.0
 40
2.0
 40
2.0
 40
2.0
 40
3.0
 40
3.0
 40
3.0
 40
4.0
 40
4.0
 40
4.0
 40
5.0
 40
5.0
 40
5.0
 40
6.0
 40
6.0
 40
6.0
 40
7.0
 40
7.0
 40
7.0
 40
8.0
 40
8.0
 40
8.0
 40
9.0
 40
9.0
 40
9.0
 40
10.0
 40
10.0
 40
10.0
 40
11.0
 40
11.0
 40
11.0
 40
12.0
 40
12.0
 40
12.0
 40
12.0
 10
223.8422984904664
 20
277.7999363403261
 10
223.9086166223072
 20
277.6638549788866
 10
223.9330768163887
 20
277.5629136145783
 10
223.9330768163887
 20
277.4127073523312
 10
223.9330768163887
 20
277.2452756012943
 10
223.8876015259836
 20
277.1405446294522
 10
223.8180105512728
 20
276.9975730724968
 10
223.8180105512728
 20
276.9975730724968
 10
223.4969274402308
 20
276.3557513601885
 10
223.4969274402308
 20
276.3557513601885
 10
223.4132115647123
 20
276.1883196091516
 10
223.2736851055149
 20
276.0663631485198
 10
223.0714578671225
 20
276.0663631485198
 10
222.8692306287302
 20
276.0663631485198
 10
222.7297041695327
 20
276.1883196091516
 10
222.6459882940142
 20
276.3557513601885
 10
222.6459882940142
 20
276.3557513601885
 10
222.3249051829722
 20
276.9975730724968
 10
222.3249051829722
 20
276.9975730724968
 10
222.2553142082614
 20
277.1405446294522
 10
222.2098389178563
 20
277.2452756012943
 10
222.2098389178563
 20
277.4127073523312
 10
222.2098389178563
 20
277.5629136145783
 10
222.2342991119378
 20
277.6638549788866
 10
222.3006172437786
 20
277.7999363403261
 10
222.3006172437786
 20
277.7999363403261
 10
222.6494333917722
 20
278.4941235385554
 10
222.6494333917722
 20
278.4941235385554
 10
222.7331492672907
 20
278.6581101918343
 10
222.8761208242461
 20
278.7800666524662
 10
223.0714578671225
 20
278.7800666524662
 10
223.2667949099989
 20
278.7800666524662
 10
223.4097664669544
 20
278.6581101918343
 10
223.4934823424728
 20
278.4941235385554
 10
223.4934823424728
 20
278.4941235385554
 10
223.8422984904664
 20
277.7999363403261
 10
223.8422984904664
 20
277.7999363403261
 97
        0
 92
        1
 93
        1
 72
     4
 94
        3
 73
     0
 74
     1
 95
       41
 96
       37
 40
0.0
 40
0.0
 40
0.0
 40
0.0
 40
1.0
 40
1.0
 40
1.0
 40
2.0
 40
2.0
 40
2.0
 40
3.0
 40
3.0
 40
3.0
 40
4.0
 40
4.0
 40
4.0
 40
5.0
 40
5.0
 40
5.0
 40
6.0
 40
6.0
 40
6.0
 40
7.0
 40
7.0
 40
7.0
 40
8.0
 40
8.0
 40
8.0
 40
9.0
 40
9.0
 40
9.0
 40
10.0
 40
10.0
 40
10.0
 40
11.0
 40
11.0
 40
11.0
 40
12.0
 40
12.0
 40
12.0
 40
12.0
 10
223.1899692299964
 20
278.3266917875184
 10
223.1620639381569
 20
278.3825023711974
 10
223.1446661944792
 20
278.4314227593605
 10
223.0714578671225
 20
278.4314227593605
 10
222.9982495397658
 20
278.4314227593605
 10
222.9808517960881
 20
278.3825023711974
 10
222.9529465042486
 20
278.3266917875184
 10
222.9529465042486
 20
278.3266917875184
 10
222.6389258436104
 20
277.695205368484
 10
222.6389258436104
 20
277.695205368484
 10
222.5865603576894
 20
277.5942640041758
 10
222.5586550658499
 20
277.5277736174471
 10
222.5586550658499
 20
277.4127073523312
 10
222.5586550658499
 20
277.3221012812968
 10
222.5796701621735
 20
277.2594005021019
 10
222.6180830021748
 20
277.1825748220994
 10
222.6180830021748
 20
277.1825748220994
 10
222.9529465042486
 20
276.5197380134675
 10
222.9529465042486
 20
276.5197380134675
 10
222.9772344434423
 20
276.4708176253045
 10
223.0016946375238
 20
276.4150070416255
 10
223.0714578671225
 20
276.4150070416255
 10
223.1412210967212
 20
276.4150070416255
 10
223.1656812908028
 20
276.4708176253045
 10
223.1899692299964
 20
276.5197380134675
 10
223.1899692299964
 20
276.5197380134675
 10
223.5248327320703
 20
277.1825748220994
 10
223.5248327320703
 20
277.1825748220994
 10
223.5632455720715
 20
277.2594005021019
 10
223.5842606683951
 20
277.3221012812968
 10
223.5842606683951
 20
277.4127073523312
 10
223.5842606683951
 20
277.5277736174471
 10
223.5563553765556
 20
277.5942640041758
 10
223.5039898906346
 20
277.695205368484
 10
223.5039898906346
 20
277.695205368484
 10
223.1899692299964
 20
278.3266917875184
 10
223.1899692299964
 20
278.3266917875184
 97
        0
 75
     2
 76
     1
 98
        0
  0
SPLINE
  5
6B
330
47
100
AcDbEntity
  8
Calque 1
370
     0
100
AcDbSpline
210
0.0
220
0.0
230
1.0
 70
    11
 71
     3
 72
    53
 73
    49
 74
     0
 42
0.0000000001
 43
0.0000000001
 40
0.0
 40
0.0
 40
0.0
 40
0.0
 40
1.0
 40
1.0
 40
1.0
 40
2.0
 40
2.0
 40
2.0
 40
3.0
 40
3.0
 40
3.0
 40
4.0
 40
4.0
 40
4.0
 40
5.0
 40
5.0
 40
5.0
 40
6.0
 40
6.0
 40
6.0
 40
7.0
 40
7.0
 40
7.0
 40
8.0
 40
8.0
 40
8.0
 40
9.0
 40
9.0
 40
9.0
 40
10.0
 40
10.0
 40
10.0
 40
11.0
 40
11.0
 40
11.0
 40
12.0
 40
12.0
 40
12.0
 40
13.0
 40
13.0
 40
13.0
 40
14.0
 40
14.0
 40
14.0
 40
15.0
 40
15.0
 40
15.0
 40
16.0
 40
16.0
 40
16.0
 40
16.0
 10
225.2851054315008
 20
276.0663631485198
 30
0.0
 10
225.11061123006
 20
276.0663631485198
 30
0.0
 10
224.9745298686206
 20
276.1083933411669
 30
0.0
 10
224.8525734079887
 20
276.2441301928306
 30
0.0
 10
224.7375071428728
 20
276.3733213587541
 30
0.0
 10
224.7199371443072
 20
276.4990674269198
 30
0.0
 10
224.7199371443072
 20
276.659264472665
 30
0.0
 10
224.7199371443072
 20
276.659264472665
 30
0.0
 10
224.7199371443072
 20
278.6057447059134
 30
0.0
 10
224.7199371443072
 20
278.6057447059134
 30
0.0
 10
224.7199371443072
 20
278.7173658732713
 30
0.0
 10
224.7688575324702
 20
278.7800666524662
 30
0.0
 10
224.8944313457479
 20
278.7800666524662
 30
0.0
 10
225.0200051590257
 20
278.7800666524662
 30
0.0
 10
225.0687532923008
 20
278.7173658732713
 30
0.0
 10
225.0687532923008
 20
278.6057447059134
 30
0.0
 10
225.0687532923008
 20
278.6057447059134
 30
0.0
 10
225.0687532923008
 20
276.659264472665
 30
0.0
 10
225.0687532923008
 20
276.659264472665
 30
0.0
 10
225.0687532923008
 20
276.4639274297886
 30
0.0
 10
225.1281812286256
 20
276.4150070416255
 30
0.0
 10
225.2851054315008
 20
276.4150070416255
 30
0.0
 10
225.2851054315008
 20
276.4150070416255
 30
0.0
 10
225.878006755646
 20
276.4150070416255
 30
0.0
 10
225.878006755646
 20
276.4150070416255
 30
0.0
 10
226.0349309585212
 20
276.4150070416255
 30
0.0
 10
226.094358894846
 20
276.4639274297886
 30
0.0
 10
226.094358894846
 20
276.659264472665
 30
0.0
 10
226.094358894846
 20
276.659264472665
 30
0.0
 10
226.094358894846
 20
278.6057447059134
 30
0.0
 10
226.094358894846
 20
278.6057447059134
 30
0.0
 10
226.094358894846
 20
278.7173658732713
 30
0.0
 10
226.1431070281212
 20
278.7800666524662
 30
0.0
 10
226.2686808413989
 20
278.7800666524662
 30
0.0
 10
226.3942546546766
 20
278.7800666524662
 30
0.0
 10
226.4431750428396
 20
278.7173658732713
 30
0.0
 10
226.4431750428396
 20
278.6057447059134
 30
0.0
 10
226.4431750428396
 20
278.6057447059134
 30
0.0
 10
226.4431750428396
 20
276.659264472665
 30
0.0
 10
226.4431750428396
 20
276.659264472665
 30
0.0
 10
226.4431750428396
 20
276.4990674269198
 30
0.0
 10
226.425605044274
 20
276.3733213587541
 30
0.0
 10
226.3105387791581
 20
276.2441301928306
 30
0.0
 10
226.1885823185262
 20
276.1083933411669
 30
0.0
 10
226.0525009570867
 20
276.0663631485198
 30
0.0
 10
225.878006755646
 20
276.0663631485198
 30
0.0
 10
225.878006755646
 20
276.0663631485198
 30
0.0
 10
225.2851054315008
 20
276.0663631485198
 30
0.0
 10
225.2851054315008
 20
276.0663631485198
 30
0.0
  0
HATCH
  5
6C
330
47
100
AcDbEntity
  8
Calque 1
 62
   179
420
  1842203
100
AcDbHatch
 10
0.0
 20
0.0
 30
0.0
210
0.0
220
0.0
230
1.0
  2
SOLID
 70
     1
 71
     0
 91
        1
 92
        1
 93
        1
 72
     4
 94
        3
 73
     0
 74
     1
 95
       53
 96
       49
 40
0.0
 40
0.0
 40
0.0
 40
0.0
 40
1.0
 40
1.0
 40
1.0
 40
2.0
 40
2.0
 40
2.0
 40
3.0
 40
3.0
 40
3.0
 40
4.0
 40
4.0
 40
4.0
 40
5.0
 40
5.0
 40
5.0
 40
6.0
 40
6.0
 40
6.0
 40
7.0
 40
7.0
 40
7.0
 40
8.0
 40
8.0
 40
8.0
 40
9.0
 40
9.0
 40
9.0
 40
10.0
 40
10.0
 40
10.0
 40
11.0
 40
11.0
 40
11.0
 40
12.0
 40
12.0
 40
12.0
 40
13.0
 40
13.0
 40
13.0
 40
14.0
 40
14.0
 40
14.0
 40
15.0
 40
15.0
 40
15.0
 40
16.0
 40
16.0
 40
16.0
 40
16.0
 10
225.2851054315008
 20
276.0663631485198
 10
225.11061123006
 20
276.0663631485198
 10
224.9745298686206
 20
276.1083933411669
 10
224.8525734079887
 20
276.2441301928306
 10
224.7375071428728
 20
276.3733213587541
 10
224.7199371443072
 20
276.4990674269198
 10
224.7199371443072
 20
276.659264472665
 10
224.7199371443072
 20
276.659264472665
 10
224.7199371443072
 20
278.6057447059134
 10
224.7199371443072
 20
278.6057447059134
 10
224.7199371443072
 20
278.7173658732713
 10
224.7688575324702
 20
278.7800666524662
 10
224.8944313457479
 20
278.7800666524662
 10
225.0200051590257
 20
278.7800666524662
 10
225.0687532923008
 20
278.7173658732713
 10
225.0687532923008
 20
278.6057447059134
 10
225.0687532923008
 20
278.6057447059134
 10
225.0687532923008
 20
276.659264472665
 10
225.0687532923008
 20
276.659264472665
 10
225.0687532923008
 20
276.4639274297886
 10
225.1281812286256
 20
276.4150070416255
 10
225.2851054315008
 20
276.4150070416255
 10
225.2851054315008
 20
276.4150070416255
 10
225.878006755646
 20
276.4150070416255
 10
225.878006755646
 20
276.4150070416255
 10
226.0349309585212
 20
276.4150070416255
 10
226.094358894846
 20
276.4639274297886
 10
226.094358894846
 20
276.659264472665
 10
226.094358894846
 20
276.659264472665
 10
226.094358894846
 20
278.6057447059134
 10
226.094358894846
 20
278.6057447059134
 10
226.094358894846
 20
278.7173658732713
 10
226.1431070281212
 20
278.7800666524662
 10
226.2686808413989
 20
278.7800666524662
 10
226.3942546546766
 20
278.7800666524662
 10
226.4431750428396
 20
278.7173658732713
 10
226.4431750428396
 20
278.6057447059134
 10
226.4431750428396
 20
278.6057447059134
 10
226.4431750428396
 20
276.659264472665
 10
226.4431750428396
 20
276.659264472665
 10
226.4431750428396
 20
276.4990674269198
 10
226.425605044274
 20
276.3733213587541
 10
226.3105387791581
 20
276.2441301928306
 10
226.1885823185262
 20
276.1083933411669
 10
226.0525009570867
 20
276.0663631485198
 10
225.878006755646
 20
276.0663631485198
 10
225.878006755646
 20
276.0663631485198
 10
225.2851054315008
 20
276.0663631485198
 10
225.2851054315008
 20
276.0663631485198
 97
        0
 75
     2
 76
     1
 98
        0
  0
SPLINE
  5
6D
330
47
100
AcDbEntity
  8
Calque 1
370
     0
100
AcDbSpline
210
0.0
220
0.0
230
1.0
 70
    11
 71
     3
 72
    29
 73
    25
 74
     0
 42
0.0000000001
 43
0.0000000001
 40
0.0
 40
0.0
 40
0.0
 40
0.0
 40
1.0
 40
1.0
 40
1.0
 40
2.0
 40
2.0
 40
2.0
 40
3.0
 40
3.0
 40
3.0
 40
4.0
 40
4.0
 40
4.0
 40
5.0
 40
5.0
 40
5.0
 40
6.0
 40
6.0
 40
6.0
 40
7.0
 40
7.0
 40
7.0
 40
8.0
 40
8.0
 40
8.0
 40
8.0
 10
228.7787790678497
 20
276.4150070416255
 30
0.0
 10
228.869557393772
 20
276.4150070416255
 30
0.0
 10
228.9532732692905
 20
276.3664311632382
 30
0.0
 10
228.9532732692905
 20
276.2406850950726
 30
0.0
 10
228.9532732692905
 20
276.1152835366829
 30
0.0
 10
228.869557393772
 20
276.0663631485198
 30
0.0
 10
228.7787790678497
 20
276.0663631485198
 30
0.0
 10
228.7787790678497
 20
276.0663631485198
 30
0.0
 10
227.2300353707581
 20
276.0663631485198
 30
0.0
 10
227.2300353707581
 20
276.0663631485198
 30
0.0
 10
227.2300353707581
 20
276.0663631485198
 30
0.0
 10
227.2300353707581
 20
278.6057447059134
 30
0.0
 10
227.2300353707581
 20
278.6057447059134
 30
0.0
 10
227.2300353707581
 20
278.7173658732713
 30
0.0
 10
227.2789557589211
 20
278.7800666524662
 30
0.0
 10
227.4045295721988
 20
278.7800666524662
 30
0.0
 10
227.5301033854765
 20
278.7800666524662
 30
0.0
 10
227.5788515187517
 20
278.7173658732713
 30
0.0
 10
227.5788515187517
 20
278.6057447059134
 30
0.0
 10
227.5788515187517
 20
278.6057447059134
 30
0.0
 10
227.5788515187517
 20
276.4150070416255
 30
0.0
 10
227.5788515187517
 20
276.4150070416255
 30
0.0
 10
227.5788515187517
 20
276.4150070416255
 30
0.0
 10
228.7787790678497
 20
276.4150070416255
 30
0.0
 10
228.7787790678497
 20
276.4150070416255
 30
0.0
  0
HATCH
  5
6E
330
47
100
AcDbEntity
  8
Calque 1
 62
   179
420
  1842203
100
AcDbHatch
 10
0.0
 20
0.0
 30
0.0
210
0.0
220
0.0
230
1.0
  2
SOLID
 70
     1
 71
     0
 91
        1
 92
        1
 93
        1
 72
     4
 94
        3
 73
     0
 74
     1
 95
       29
 96
       25
 40
0.0
 40
0.0
 40
0.0
 40
0.0
 40
1.0
 40
1.0
 40
1.0
 40
2.0
 40
2.0
 40
2.0
 40
3.0
 40
3.0
 40
3.0
 40
4.0
 40
4.0
 40
4.0
 40
5.0
 40
5.0
 40
5.0
 40
6.0
 40
6.0
 40
6.0
 40
7.0
 40
7.0
 40
7.0
 40
8.0
 40
8.0
 40
8.0
 40
8.0
 10
228.7787790678497
 20
276.4150070416255
 10
228.869557393772
 20
276.4150070416255
 10
228.9532732692905
 20
276.3664311632382
 10
228.9532732692905
 20
276.2406850950726
 10
228.9532732692905
 20
276.1152835366829
 10
228.869557393772
 20
276.0663631485198
 10
228.7787790678497
 20
276.0663631485198
 10
228.7787790678497
 20
276.0663631485198
 10
227.2300353707581
 20
276.0663631485198
 10
227.2300353707581
 20
276.0663631485198
 10
227.2300353707581
 20
276.0663631485198
 10
227.2300353707581
 20
278.6057447059134
 10
227.2300353707581
 20
278.6057447059134
 10
227.2300353707581
 20
278.7173658732713
 10
227.2789557589211
 20
278.7800666524662
 10
227.4045295721988
 20
278.7800666524662
 10
227.5301033854765
 20
278.7800666524662
 10
227.5788515187517
 20
278.7173658732713
 10
227.5788515187517
 20
278.6057447059134
 10
227.5788515187517
 20
278.6057447059134
 10
227.5788515187517
 20
276.4150070416255
 10
227.5788515187517
 20
276.4150070416255
 10
227.5788515187517
 20
276.4150070416255
 10
228.7787790678497
 20
276.4150070416255
 10
228.7787790678497
 20
276.4150070416255
 97
        0
 75
     2
 76
     1
 98
        0
  0
SPLINE
  5
6F
330
47
100
AcDbEntity
  8
Calque 1
370
     0
100
AcDbSpline
210
0.0
220
0.0
230
1.0
 70
    11
 71
     3
 72
    50
 73
    46
 74
     0
 42
0.0000000001
 43
0.0000000001
 40
0.0
 40
0.0
 40
0.0
 40
0.0
 40
1.0
 40
1.0
 40
1.0
 40
2.0
 40
2.0
 40
2.0
 40
3.0
 40
3.0
 40
3.0
 40
4.0
 40
4.0
 40
4.0
 40
5.0
 40
5.0
 40
5.0
 40
6.0
 40
6.0
 40
6.0
 40
7.0
 40
7.0
 40
7.0
 40
8.0
 40
8.0
 40
8.0
 40
9.0
 40
9.0
 40
9.0
 40
10.0
 40
10.0
 40
10.0
 40
11.0
 40
11.0
 40
11.0
 40
12.0
 40
12.0
 40
12.0
 40
13.0
 40
13.0
 40
13.0
 40
14.0
 40
14.0
 40
14.0
 40
15.0
 40
15.0
 40
15.0
 40
15.0
 10
231.2887050394127
 20
276.4150070416255
 30
0.0
 10
231.379483365335
 20
276.4150070416255
 30
0.0
 10
231.4631992408535
 20
276.3664311632382
 30
0.0
 10
231.4631992408535
 20
276.2406850950726
 30
0.0
 10
231.4631992408535
 20
276.1152835366829
 30
0.0
 10
231.379483365335
 20
276.0663631485198
 30
0.0
 10
231.2887050394127
 20
276.0663631485198
 30
0.0
 10
231.2887050394127
 20
276.0663631485198
 30
0.0
 10
229.7399613423211
 20
276.0663631485198
 30
0.0
 10
229.7399613423211
 20
276.0663631485198
 30
0.0
 10
229.7399613423211
 20
276.0663631485198
 30
0.0
 10
229.7399613423211
 20
278.7800666524662
 30
0.0
 10
229.7399613423211
 20
278.7800666524662
 30
0.0
 10
229.7399613423211
 20
278.7800666524662
 30
0.0
 10
231.2887050394127
 20
278.7800666524662
 30
0.0
 10
231.2887050394127
 20
278.7800666524662
 30
0.0
 10
231.379483365335
 20
278.7800666524662
 30
0.0
 10
231.4631992408535
 20
278.731490774079
 30
0.0
 10
231.4631992408535
 20
278.6057447059134
 30
0.0
 10
231.4631992408535
 20
278.4799986377477
 30
0.0
 10
231.379483365335
 20
278.4314227593605
 30
0.0
 10
231.2887050394127
 20
278.4314227593605
 30
0.0
 10
231.2887050394127
 20
278.4314227593605
 30
0.0
 10
230.0887774903147
 20
278.4314227593605
 30
0.0
 10
230.0887774903147
 20
278.4314227593605
 30
0.0
 10
230.0887774903147
 20
278.4314227593605
 30
0.0
 10
230.0887774903147
 20
277.5977091019337
 30
0.0
 10
230.0887774903147
 20
277.5977091019337
 30
0.0
 10
230.0887774903147
 20
277.5977091019337
 30
0.0
 10
230.6015802915873
 20
277.5977091019337
 30
0.0
 10
230.6015802915873
 20
277.5977091019337
 30
0.0
 10
230.6923586175096
 20
277.5977091019337
 30
0.0
 10
230.776074493028
 20
277.5487887137707
 30
0.0
 10
230.776074493028
 20
277.4233871553809
 30
0.0
 10
230.776074493028
 20
277.2976410872153
 30
0.0
 10
230.6923586175096
 20
277.2487206990522
 30
0.0
 10
230.6015802915873
 20
277.2487206990522
 30
0.0
 10
230.6015802915873
 20
277.2487206990522
 30
0.0
 10
230.0887774903147
 20
277.2487206990522
 30
0.0
 10
230.0887774903147
 20
277.2487206990522
 30
0.0
 10
230.0887774903147
 20
277.2487206990522
 30
0.0
 10
230.0887774903147
 20
276.4150070416255
 30
0.0
 10
230.0887774903147
 20
276.4150070416255
 30
0.0
 10
230.0887774903147
 20
276.4150070416255
 30
0.0
 10
231.2887050394127
 20
276.4150070416255
 30
0.0
 10
231.2887050394127
 20
276.4150070416255
 30
0.0
  0
HATCH
  5
70
330
47
100
AcDbEntity
  8
Calque 1
 62
   179
420
  1842203
100
AcDbHatch
 10
0.0
 20
0.0
 30
0.0
210
0.0
220
0.0
230
1.0
  2
SOLID
 70
     1
 71
     0
 91
        1
 92
        1
 93
        1
 72
     4
 94
        3
 73
     0
 74
     1
 95
       50
 96
       46
 40
0.0
 40
0.0
 40
0.0
 40
0.0
 40
1.0
 40
1.0
 40
1.0
 40
2.0
 40
2.0
 40
2.0
 40
3.0
 40
3.0
 40
3.0
 40
4.0
 40
4.0
 40
4.0
 40
5.0
 40
5.0
 40
5.0
 40
6.0
 40
6.0
 40
6.0
 40
7.0
 40
7.0
 40
7.0
 40
8.0
 40
8.0
 40
8.0
 40
9.0
 40
9.0
 40
9.0
 40
10.0
 40
10.0
 40
10.0
 40
11.0
 40
11.0
 40
11.0
 40
12.0
 40
12.0
 40
12.0
 40
13.0
 40
13.0
 40
13.0
 40
14.0
 40
14.0
 40
14.0
 40
15.0
 40
15.0
 40
15.0
 40
15.0
 10
231.2887050394127
 20
276.4150070416255
 10
231.379483365335
 20
276.4150070416255
 10
231.4631992408535
 20
276.3664311632382
 10
231.4631992408535
 20
276.2406850950726
 10
231.4631992408535
 20
276.1152835366829
 10
231.379483365335
 20
276.0663631485198
 10
231.2887050394127
 20
276.0663631485198
 10
231.2887050394127
 20
276.0663631485198
 10
229.7399613423211
 20
276.0663631485198
 10
229.7399613423211
 20
276.0663631485198
 10
229.7399613423211
 20
276.0663631485198
 10
229.7399613423211
 20
278.7800666524662
 10
229.7399613423211
 20
278.7800666524662
 10
229.7399613423211
 20
278.7800666524662
 10
231.2887050394127
 20
278.7800666524662
 10
231.2887050394127
 20
278.7800666524662
 10
231.379483365335
 20
278.7800666524662
 10
231.4631992408535
 20
278.731490774079
 10
231.4631992408535
 20
278.6057447059134
 10
231.4631992408535
 20
278.4799986377477
 10
231.379483365335
 20
278.4314227593605
 10
231.2887050394127
 20
278.4314227593605
 10
231.2887050394127
 20
278.4314227593605
 10
230.0887774903147
 20
278.4314227593605
 10
230.0887774903147
 20
278.4314227593605
 10
230.0887774903147
 20
278.4314227593605
 10
230.0887774903147
 20
277.5977091019337
 10
230.0887774903147
 20
277.5977091019337
 10
230.0887774903147
 20
277.5977091019337
 10
230.6015802915873
 20
277.5977091019337
 10
230.6015802915873
 20
277.5977091019337
 10
230.6923586175096
 20
277.5977091019337
 10
230.776074493028
 20
277.5487887137707
 10
230.776074493028
 20
277.4233871553809
 10
230.776074493028
 20
277.2976410872153
 10
230.6923586175096
 20
277.2487206990522
 10
230.6015802915873
 20
277.2487206990522
 10
230.6015802915873
 20
277.2487206990522
 10
230.0887774903147
 20
277.2487206990522
 10
230.0887774903147
 20
277.2487206990522
 10
230.0887774903147
 20
277.2487206990522
 10
230.0887774903147
 20
276.4150070416255
 10
230.0887774903147
 20
276.4150070416255
 10
230.0887774903147
 20
276.4150070416255
 10
231.2887050394127
 20
276.4150070416255
 10
231.2887050394127
 20
276.4150070416255
 97
        0
 75
     2
 76
     1
 98
        0
  0
SPLINE
  5
71
330
47
100
AcDbEntity
  8
Calque 1
370
     0
100
AcDbSpline
210
0.0
220
0.0
230
1.0
 70
    11
 71
     3
 72
    80
 73
    76
 74
     0
 42
0.0000000001
 43
0.0000000001
 40
0.0
 40
0.0
 40
0.0
 40
0.0
 40
1.0
 40
1.0
 40
1.0
 40
2.0
 40
2.0
 40
2.0
 40
3.0
 40
3.0
 40
3.0
 40
4.0
 40
4.0
 40
4.0
 40
5.0
 40
5.0
 40
5.0
 40
6.0
 40
6.0
 40
6.0
 40
7.0
 40
7.0
 40
7.0
 40
8.0
 40
8.0
 40
8.0
 40
9.0
 40
9.0
 40
9.0
 40
10.0
 40
10.0
 40
10.0
 40
11.0
 40
11.0
 40
11.0
 40
12.0
 40
12.0
 40
12.0
 40
13.0
 40
13.0
 40
13.0
 40
14.0
 40
14.0
 40
14.0
 40
15.0
 40
15.0
 40
15.0
 40
16.0
 40
16.0
 40
16.0
 40
17.0
 40
17.0
 40
17.0
 40
18.0
 40
18.0
 40
18.0
 40
19.0
 40
19.0
 40
19.0
 40
20.0
 40
20.0
 40
20.0
 40
21.0
 40
21.0
 40
21.0
 40
22.0
 40
22.0
 40
22.0
 40
23.0
 40
23.0
 40
23.0
 40
24.0
 40
24.0
 40
24.0
 40
25.0
 40
25.0
 40
25.0
 40
25.0
 10
233.8511687517846
 20
276.7498705436994
 30
0.0
 10
233.9209319813833
 20
276.659264472665
 30
0.0
 10
233.9732974673044
 20
276.5789936949045
 30
0.0
 10
233.9732974673044
 20
276.4604823320306
 30
0.0
 10
233.9732974673044
 20
276.1989994122013
 30
0.0
 10
233.7743430717821
 20
276.0663631485198
 30
0.0
 10
233.5337029933885
 20
276.0663631485198
 30
0.0
 10
233.5337029933885
 20
276.0663631485198
 30
0.0
 10
232.7663074678025
 20
276.0663631485198
 30
0.0
 10
232.7663074678025
 20
276.0663631485198
 30
0.0
 10
232.6338434590089
 20
276.0663631485198
 30
0.0
 10
232.5186049390051
 20
276.0908233426013
 30
0.0
 10
232.4140462220509
 20
276.1779843158777
 30
0.0
 10
232.3198227983707
 20
276.2548099958803
 30
0.0
 10
232.2500595687719
 20
276.3802115542701
 30
0.0
 10
232.2500595687719
 20
276.5025125246777
 30
0.0
 10
232.2500595687719
 20
276.6141336920357
 30
0.0
 10
232.3129326028547
 20
276.711629958586
 30
0.0
 10
232.4348890634866
 20
276.711629958586
 30
0.0
 10
232.5361749375706
 20
276.711629958586
 30
0.0
 10
232.5988757167656
 20
276.6279140830675
 30
0.0
 10
232.5988757167656
 20
276.5338629142752
 30
0.0
 10
232.5988757167656
 20
276.4291319424331
 30
0.0
 10
232.6546863004446
 20
276.4150070416255
 30
0.0
 10
232.7523548218828
 20
276.4150070416255
 30
0.0
 10
232.7523548218828
 20
276.4150070416255
 30
0.0
 10
233.5094150541948
 20
276.4150070416255
 30
0.0
 10
233.5094150541948
 20
276.4150070416255
 30
0.0
 10
233.5373203460343
 20
276.4150070416255
 30
0.0
 10
233.6244813193107
 20
276.4046717483516
 30
0.0
 10
233.6244813193107
 20
276.4570372342727
 30
0.0
 10
233.6244813193107
 20
276.4849425261121
 30
0.0
 10
233.5755609311477
 20
276.5373080120331
 30
0.0
 10
233.5616082852279
 20
276.5583231083567
 30
0.0
 10
233.5616082852279
 20
276.5583231083567
 30
0.0
 10
232.3652980887758
 20
278.0965592572866
 30
0.0
 10
232.3652980887758
 20
278.0965592572866
 30
0.0
 10
232.2919175065312
 20
278.1906104260789
 30
0.0
 10
232.2500595687719
 20
278.2605459105656
 30
0.0
 10
232.2500595687719
 20
278.3825023711974
 30
0.0
 10
232.2500595687719
 20
278.5220288303948
 30
0.0
 10
232.3163777006127
 20
278.6405401932687
 30
0.0
 10
232.4348890634866
 20
278.7173658732713
 30
0.0
 10
232.5327298398127
 20
278.7800666524662
 30
0.0
 10
232.6128283626853
 20
278.7800666524662
 30
0.0
 10
232.7244495300433
 20
278.7800666524662
 30
0.0
 10
232.7244495300433
 20
278.7800666524662
 30
0.0
 10
233.4639397637897
 20
278.7800666524662
 30
0.0
 10
233.4639397637897
 20
278.7800666524662
 30
0.0
 10
233.5965760274713
 20
278.7800666524662
 30
0.0
 10
233.7081971948292
 20
278.7521613606267
 30
0.0
 10
233.8093108140254
 20
278.6650003873503
 30
0.0
 10
233.9000891399477
 20
278.5847296095898
 30
0.0
 10
233.9732974673044
 20
278.455882953442
 30
0.0
 10
233.9732974673044
 20
278.3335819830344
 30
0.0
 10
233.9732974673044
 20
278.2219608156764
 30
0.0
 10
233.9174868836254
 20
278.131354744642
 30
0.0
 10
233.7919130703477
 20
278.131354744642
 30
0.0
 10
233.6871820985057
 20
278.131354744642
 30
0.0
 10
233.6244813193107
 20
278.1975006215949
 30
0.0
 10
233.6244813193107
 20
278.295341397921
 30
0.0
 10
233.6244813193107
 20
278.4138527607949
 30
0.0
 10
233.5652256378738
 20
278.4314227593605
 30
0.0
 10
233.4570495682738
 20
278.4314227593605
 30
0.0
 10
233.4570495682738
 20
278.4314227593605
 30
0.0
 10
232.7175593345274
 20
278.4314227593605
 30
0.0
 10
232.7175593345274
 20
278.4314227593605
 30
0.0
 10
232.6791464945261
 20
278.4314227593605
 30
0.0
 10
232.5988757167656
 20
278.4417580526344
 30
0.0
 10
232.5988757167656
 20
278.3825023711974
 30
0.0
 10
232.5988757167656
 20
278.3511519816
 30
0.0
 10
232.6372885567668
 20
278.3091217889528
 30
0.0
 10
232.6512412026866
 20
278.288451202405
 30
0.0
 10
232.6512412026866
 20
278.288451202405
 30
0.0
 10
233.8511687517846
 20
276.7498705436994
 30
0.0
 10
233.8511687517846
 20
276.7498705436994
 30
0.0
  0
HATCH
  5
72
330
47
100
AcDbEntity
  8
Calque 1
 62
   179
420
  1842203
100
AcDbHatch
 10
0.0
 20
0.0
 30
0.0
210
0.0
220
0.0
230
1.0
  2
SOLID
 70
     1
 71
     0
 91
        1
 92
        1
 93
        1
 72
     4
 94
        3
 73
     0
 74
     1
 95
       80
 96
       76
 40
0.0
 40
0.0
 40
0.0
 40
0.0
 40
1.0
 40
1.0
 40
1.0
 40
2.0
 40
2.0
 40
2.0
 40
3.0
 40
3.0
 40
3.0
 40
4.0
 40
4.0
 40
4.0
 40
5.0
 40
5.0
 40
5.0
 40
6.0
 40
6.0
 40
6.0
 40
7.0
 40
7.0
 40
7.0
 40
8.0
 40
8.0
 40
8.0
 40
9.0
 40
9.0
 40
9.0
 40
10.0
 40
10.0
 40
10.0
 40
11.0
 40
11.0
 40
11.0
 40
12.0
 40
12.0
 40
12.0
 40
13.0
 40
13.0
 40
13.0
 40
14.0
 40
14.0
 40
14.0
 40
15.0
 40
15.0
 40
15.0
 40
16.0
 40
16.0
 40
16.0
 40
17.0
 40
17.0
 40
17.0
 40
18.0
 40
18.0
 40
18.0
 40
19.0
 40
19.0
 40
19.0
 40
20.0
 40
20.0
 40
20.0
 40
21.0
 40
21.0
 40
21.0
 40
22.0
 40
22.0
 40
22.0
 40
23.0
 40
23.0
 40
23.0
 40
24.0
 40
24.0
 40
24.0
 40
25.0
 40
25.0
 40
25.0
 40
25.0
 10
233.8511687517846
 20
276.7498705436994
 10
233.9209319813833
 20
276.659264472665
 10
233.9732974673044
 20
276.5789936949045
 10
233.9732974673044
 20
276.4604823320306
 10
233.9732974673044
 20
276.1989994122013
 10
233.7743430717821
 20
276.0663631485198
 10
233.5337029933885
 20
276.0663631485198
 10
233.5337029933885
 20
276.0663631485198
 10
232.7663074678025
 20
276.0663631485198
 10
232.7663074678025
 20
276.0663631485198
 10
232.6338434590089
 20
276.0663631485198
 10
232.5186049390051
 20
276.0908233426013
 10
232.4140462220509
 20
276.1779843158777
 10
232.3198227983707
 20
276.2548099958803
 10
232.2500595687719
 20
276.3802115542701
 10
232.2500595687719
 20
276.5025125246777
 10
232.2500595687719
 20
276.6141336920357
 10
232.3129326028547
 20
276.711629958586
 10
232.4348890634866
 20
276.711629958586
 10
232.5361749375706
 20
276.711629958586
 10
232.5988757167656
 20
276.6279140830675
 10
232.5988757167656
 20
276.5338629142752
 10
232.5988757167656
 20
276.4291319424331
 10
232.6546863004446
 20
276.4150070416255
 10
232.7523548218828
 20
276.4150070416255
 10
232.7523548218828
 20
276.4150070416255
 10
233.5094150541948
 20
276.4150070416255
 10
233.5094150541948
 20
276.4150070416255
 10
233.5373203460343
 20
276.4150070416255
 10
233.6244813193107
 20
276.4046717483516
 10
233.6244813193107
 20
276.4570372342727
 10
233.6244813193107
 20
276.4849425261121
 10
233.5755609311477
 20
276.5373080120331
 10
233.5616082852279
 20
276.5583231083567
 10
233.5616082852279
 20
276.5583231083567
 10
232.3652980887758
 20
278.0965592572866
 10
232.3652980887758
 20
278.0965592572866
 10
232.2919175065312
 20
278.1906104260789
 10
232.2500595687719
 20
278.2605459105656
 10
232.2500595687719
 20
278.3825023711974
 10
232.2500595687719
 20
278.5220288303948
 10
232.3163777006127
 20
278.6405401932687
 10
232.4348890634866
 20
278.7173658732713
 10
232.5327298398127
 20
278.7800666524662
 10
232.6128283626853
 20
278.7800666524662
 10
232.7244495300433
 20
278.7800666524662
 10
232.7244495300433
 20
278.7800666524662
 10
233.4639397637897
 20
278.7800666524662
 10
233.4639397637897
 20
278.7800666524662
 10
233.5965760274713
 20
278.7800666524662
 10
233.7081971948292
 20
278.7521613606267
 10
233.8093108140254
 20
278.6650003873503
 10
233.9000891399477
 20
278.5847296095898
 10
233.9732974673044
 20
278.455882953442
 10
233.9732974673044
 20
278.3335819830344
 10
233.9732974673044
 20
278.2219608156764
 10
233.9174868836254
 20
278.131354744642
 10
233.7919130703477
 20
278.131354744642
 10
233.6871820985057
 20
278.131354744642
 10
233.6244813193107
 20
278.1975006215949
 10
233.6244813193107
 20
278.295341397921
 10
233.6244813193107
 20
278.4138527607949
 10
233.5652256378738
 20
278.4314227593605
 10
233.4570495682738
 20
278.4314227593605
 10
233.4570495682738
 20
278.4314227593605
 10
232.7175593345274
 20
278.4314227593605
 10
232.7175593345274
 20
278.4314227593605
 10
232.6791464945261
 20
278.4314227593605
 10
232.5988757167656
 20
278.4417580526344
 10
232.5988757167656
 20
278.3825023711974
 10
232.5988757167656
 20
278.3511519816
 10
232.6372885567668
 20
278.3091217889528
 10
232.6512412026866
 20
278.288451202405
 10
232.6512412026866
 20
278.288451202405
 10
233.8511687517846
 20
276.7498705436994
 10
233.8511687517846
 20
276.7498705436994
 97
        0
 75
     2
 76
     1
 98
        0
  0
ENDBLK
  5
4A
330
47
100
AcDbEntity
  8
0
100
AcDbBlockEnd
  0
BLOCK
  5
75
330
73
100
AcDbEntity
  8
0
100
AcDbBlockBegin
  2
block 3
 70
     0
 71
     0
 10
0.0
 20
0.0
 30
0.0
  3
block 3
  1

  0
SPLINE
  5
77
330
73
100
AcDbEntity
  8
Calque 1
370
     0
100
AcDbSpline
210
0.0
220
0.0
230
1.0
 70
    11
 71
     3
 72
    44
 73
    40
 74
     0
 42
0.0000000001
 43
0.0000000001
 40
0.0
 40
0.0
 40
0.0
 40
0.0
 40
1.0
 40
1.0
 40
1.0
 40
2.0
 40
2.0
 40
2.0
 40
3.0
 40
3.0
 40
3.0
 40
4.0
 40
4.0
 40
4.0
 40
5.0
 40
5.0
 40
5.0
 40
6.0
 40
6.0
 40
6.0
 40
7.0
 40
7.0
 40
7.0
 40
8.0
 40
8.0
 40
8.0
 40
9.0
 40
9.0
 40
9.0
 40
10.0
 40
10.0
 40
10.0
 40
11.0
 40
11.0
 40
11.0
 40
12.0
 40
12.0
 40
12.0
 40
13.0
 40
13.0
 40
13.0
 40
13.0
 10
190.8348168714355
 20
274.5966844449733
 30
0.0
 10
190.8348168714355
 20
274.5966844449733
 30
0.0
 10
192.3835605685272
 20
274.5966844449733
 30
0.0
 10
192.3835605685272
 20
274.5966844449733
 30
0.0
 10
192.4743388944495
 20
274.5966844449733
 30
0.0
 10
192.558054769968
 20
274.5477640568103
 30
0.0
 10
192.558054769968
 20
274.4223624984205
 30
0.0
 10
192.558054769968
 20
274.2969609400307
 30
0.0
 10
192.4743388944495
 20
274.2480405518676
 30
0.0
 10
192.3835605685272
 20
274.2480405518676
 30
0.0
 10
192.3835605685272
 20
274.2480405518676
 30
0.0
 10
191.1836330194291
 20
274.2480405518676
 30
0.0
 10
191.1836330194291
 20
274.2480405518676
 30
0.0
 10
191.1836330194291
 20
274.2480405518676
 30
0.0
 10
191.1836330194291
 20
273.7106053016255
 30
0.0
 10
191.1836330194291
 20
273.7106053016255
 30
0.0
 10
191.1836330194291
 20
273.7106053016255
 30
0.0
 10
192.0418068709374
 20
273.7106053016255
 30
0.0
 10
192.0418068709374
 20
273.7106053016255
 30
0.0
 10
192.1324129419718
 20
273.7106053016255
 30
0.0
 10
192.2161288174902
 20
273.6620294232383
 30
0.0
 10
192.2161288174902
 20
273.5362833550727
 30
0.0
 10
192.2161288174902
 20
273.4108817966829
 30
0.0
 10
192.1324129419718
 20
273.3619614085198
 30
0.0
 10
192.0418068709374
 20
273.3619614085198
 30
0.0
 10
192.0418068709374
 20
273.3619614085198
 30
0.0
 10
191.1836330194291
 20
273.3619614085198
 30
0.0
 10
191.1836330194291
 20
273.3619614085198
 30
0.0
 10
191.1836330194291
 20
273.3619614085198
 30
0.0
 10
191.1836330194291
 20
272.0573028875797
 30
0.0
 10
191.1836330194291
 20
272.0573028875797
 30
0.0
 10
191.1836330194291
 20
271.9456817202218
 30
0.0
 10
191.134884886154
 20
271.8829809410269
 30
0.0
 10
191.0093110728763
 20
271.8829809410269
 30
0.0
 10
190.8837372595985
 20
271.8829809410269
 30
0.0
 10
190.8348168714355
 20
271.9456817202218
 30
0.0
 10
190.8348168714355
 20
272.0573028875797
 30
0.0
 10
190.8348168714355
 20
272.0573028875797
 30
0.0
 10
190.8348168714355
 20
274.5966844449733
 30
0.0
 10
190.8348168714355
 20
274.5966844449733
 30
0.0
  0
HATCH
  5
78
330
73
100
AcDbEntity
  8
Calque 1
 62
   179
420
  1842203
100
AcDbHatch
 10
0.0
 20
0.0
 30
0.0
210
0.0
220
0.0
230
1.0
  2
SOLID
 70
     1
 71
     0
 91
        1
 92
        1
 93
        1
 72
     4
 94
        3
 73
     0
 74
     1
 95
       44
 96
       40
 40
0.0
 40
0.0
 40
0.0
 40
0.0
 40
1.0
 40
1.0
 40
1.0
 40
2.0
 40
2.0
 40
2.0
 40
3.0
 40
3.0
 40
3.0
 40
4.0
 40
4.0
 40
4.0
 40
5.0
 40
5.0
 40
5.0
 40
6.0
 40
6.0
 40
6.0
 40
7.0
 40
7.0
 40
7.0
 40
8.0
 40
8.0
 40
8.0
 40
9.0
 40
9.0
 40
9.0
 40
10.0
 40
10.0
 40
10.0
 40
11.0
 40
11.0
 40
11.0
 40
12.0
 40
12.0
 40
12.0
 40
13.0
 40
13.0
 40
13.0
 40
13.0
 10
190.8348168714355
 20
274.5966844449733
 10
190.8348168714355
 20
274.5966844449733
 10
192.3835605685272
 20
274.5966844449733
 10
192.3835605685272
 20
274.5966844449733
 10
192.4743388944495
 20
274.5966844449733
 10
192.558054769968
 20
274.5477640568103
 10
192.558054769968
 20
274.4223624984205
 10
192.558054769968
 20
274.2969609400307
 10
192.4743388944495
 20
274.2480405518676
 10
192.3835605685272
 20
274.2480405518676
 10
192.3835605685272
 20
274.2480405518676
 10
191.1836330194291
 20
274.2480405518676
 10
191.1836330194291
 20
274.2480405518676
 10
191.1836330194291
 20
274.2480405518676
 10
191.1836330194291
 20
273.7106053016255
 10
191.1836330194291
 20
273.7106053016255
 10
191.1836330194291
 20
273.7106053016255
 10
192.0418068709374
 20
273.7106053016255
 10
192.0418068709374
 20
273.7106053016255
 10
192.1324129419718
 20
273.7106053016255
 10
192.2161288174902
 20
273.6620294232383
 10
192.2161288174902
 20
273.5362833550727
 10
192.2161288174902
 20
273.4108817966829
 10
192.1324129419718
 20
273.3619614085198
 10
192.0418068709374
 20
273.3619614085198
 10
192.0418068709374
 20
273.3619614085198
 10
191.1836330194291
 20
273.3619614085198
 10
191.1836330194291
 20
273.3619614085198
 10
191.1836330194291
 20
273.3619614085198
 10
191.1836330194291
 20
272.0573028875797
 10
191.1836330194291
 20
272.0573028875797
 10
191.1836330194291
 20
271.9456817202218
 10
191.134884886154
 20
271.8829809410269
 10
191.0093110728763
 20
271.8829809410269
 10
190.8837372595985
 20
271.8829809410269
 10
190.8348168714355
 20
271.9456817202218
 10
190.8348168714355
 20
272.0573028875797
 10
190.8348168714355
 20
272.0573028875797
 10
190.8348168714355
 20
274.5966844449733
 10
190.8348168714355
 20
274.5966844449733
 97
        0
 75
     2
 76
     1
 98
        0
  0
SPLINE
  5
79
330
73
100
AcDbEntity
  8
Calque 1
370
     0
100
AcDbSpline
210
0.0
220
0.0
230
1.0
 70
    11
 71
     3
 72
    65
 73
    61
 74
     0
 42
0.0000000001
 43
0.0000000001
 40
0.0
 40
0.0
 40
0.0
 40
0.0
 40
1.0
 40
1.0
 40
1.0
 40
2.0
 40
2.0
 40
2.0
 40
3.0
 40
3.0
 40
3.0
 40
4.0
 40
4.0
 40
4.0
 40
5.0
 40
5.0
 40
5.0
 40
6.0
 40
6.0
 40
6.0
 40
7.0
 40
7.0
 40
7.0
 40
8.0
 40
8.0
 40
8.0
 40
9.0
 40
9.0
 40
9.0
 40
10.0
 40
10.0
 40
10.0
 40
11.0
 40
11.0
 40
11.0
 40
12.0
 40
12.0
 40
12.0
 40
13.0
 40
13.0
 40
13.0
 40
14.0
 40
14.0
 40
14.0
 40
15.0
 40
15.0
 40
15.0
 40
16.0
 40
16.0
 40
16.0
 40
17.0
 40
17.0
 40
17.0
 40
18.0
 40
18.0
 40
18.0
 40
19.0
 40
19.0
 40
19.0
 40
20.0
 40
20.0
 40
20.0
 40
20.0
 10
193.9483239701934
 20
273.4281072854727
 30
0.0
 10
193.8508277036431
 20
273.4281072854727
 30
0.0
 10
193.7181914399615
 20
273.4491223817963
 30
0.0
 10
193.7181914399615
 20
273.5955390365096
 30
0.0
 10
193.7181914399615
 20
273.7388551032408
 30
0.0
 10
193.8367028028354
 20
273.7629707875466
 30
0.0
 10
193.9483239701934
 20
273.7629707875466
 30
0.0
 10
193.9483239701934
 20
273.7629707875466
 30
0.0
 10
194.4089335404329
 20
273.7629707875466
 30
0.0
 10
194.4089335404329
 20
273.7629707875466
 30
0.0
 10
194.5832554869857
 20
273.7629707875466
 30
0.0
 10
194.7088293002634
 20
273.7457452987568
 30
0.0
 10
194.8412933090571
 20
273.6131090350752
 30
0.0
 10
194.9704844749806
 20
273.4839178691517
 30
0.0
 10
194.9878822186583
 20
273.3829765048434
 30
0.0
 10
194.9913273164163
 20
273.2155447538065
 30
0.0
 10
194.9913273164163
 20
273.2155447538065
 30
0.0
 10
195.0262950586596
 20
272.0783179839033
 30
0.0
 10
195.0262950586596
 20
272.0783179839033
 30
0.0
 10
195.0297401564175
 20
271.9804772075772
 30
0.0
 10
194.9808197682545
 20
271.8829809410269
 30
0.0
 10
194.8691986008965
 20
271.8829809410269
 30
0.0
 10
194.7820376276201
 20
271.8829809410269
 30
0.0
 10
194.6948766543437
 20
271.9563615232715
 30
0.0
 10
194.6983217521016
 20
272.0504126920638
 30
0.0
 10
194.6983217521016
 20
272.0504126920638
 30
0.0
 10
194.4681892218698
 20
271.9319013291899
 30
0.0
 10
194.4681892218698
 20
271.9319013291899
 30
0.0
 10
194.3739657981895
 20
271.8829809410269
 30
0.0
 10
194.3705207004316
 20
271.8829809410269
 30
0.0
 10
194.2623446308316
 20
271.8829809410269
 30
0.0
 10
194.2623446308316
 20
271.8829809410269
 30
0.0
 10
193.9414337746774
 20
271.8829809410269
 30
0.0
 10
193.9414337746774
 20
271.8829809410269
 30
0.0
 10
193.7913997673182
 20
271.8829809410269
 30
0.0
 10
193.6833959526061
 20
271.9005509395925
 30
0.0
 10
193.5612672370864
 20
272.0014923039008
 30
0.0
 10
193.4217407778889
 20
272.1165585690167
 30
0.0
 10
193.3867730356456
 20
272.2388595394244
 30
0.0
 10
193.3867730356456
 20
272.4131814859772
 30
0.0
 10
193.3867730356456
 20
272.4131814859772
 30
0.0
 10
193.3867730356456
 20
272.5595981406906
 30
0.0
 10
193.3867730356456
 20
272.5595981406906
 30
0.0
 10
193.3867730356456
 20
272.7201396962116
 30
0.0
 10
193.4251858756469
 20
272.8214255702957
 30
0.0
 10
193.5507596889246
 20
272.9330467376536
 30
0.0
 10
193.6658259540405
 20
273.0339881019619
 30
0.0
 10
193.7950171199641
 20
273.0584482960434
 30
0.0
 10
193.9414337746774
 20
273.0584482960434
 30
0.0
 10
193.9414337746774
 20
273.0584482960434
 30
0.0
 10
194.6600811669883
 20
273.0584482960434
 30
0.0
 10
194.6600811669883
 20
273.0584482960434
 30
0.0
 10
194.6600811669883
 20
273.0584482960434
 30
0.0
 10
194.6600811669883
 20
273.135273976046
 30
0.0
 10
194.6600811669883
 20
273.135273976046
 30
0.0
 10
194.6600811669883
 20
273.3864216026014
 30
0.0
 10
194.6042705833093
 20
273.4281072854727
 30
0.0
 10
194.3634582500278
 20
273.4281072854727
 30
0.0
 10
194.3634582500278
 20
273.4281072854727
 30
0.0
 10
193.9483239701934
 20
273.4281072854727
 30
0.0
 10
193.9483239701934
 20
273.4281072854727
 30
0.0
  0
SPLINE
  5
7A
330
73
100
AcDbEntity
  8
Calque 1
370
     0
100
AcDbSpline
210
0.0
220
0.0
230
1.0
 70
    11
 71
     3
 72
    29
 73
    25
 74
     0
 42
0.0000000001
 43
0.0000000001
 40
0.0
 40
0.0
 40
0.0
 40
0.0
 40
1.0
 40
1.0
 40
1.0
 40
2.0
 40
2.0
 40
2.0
 40
3.0
 40
3.0
 40
3.0
 40
4.0
 40
4.0
 40
4.0
 40
5.0
 40
5.0
 40
5.0
 40
6.0
 40
6.0
 40
6.0
 40
7.0
 40
7.0
 40
7.0
 40
8.0
 40
8.0
 40
8.0
 40
8.0
 10
193.9448788724354
 20
272.7235847939696
 30
0.0
 10
193.854272801401
 20
272.7235847939696
 30
0.0
 10
193.7216365377195
 20
272.699124599888
 30
0.0
 10
193.7216365377195
 20
272.5771681392562
 30
0.0
 10
193.7216365377195
 20
272.5771681392562
 30
0.0
 10
193.7216365377195
 20
272.3539258045403
 30
0.0
 10
193.7216365377195
 20
272.3539258045403
 30
0.0
 10
193.7216365377195
 20
272.2423046371823
 30
0.0
 10
193.857717899159
 20
272.2178444431008
 30
0.0
 10
193.9379886769195
 20
272.2178444431008
 30
0.0
 10
193.9379886769195
 20
272.2178444431008
 30
0.0
 10
194.3076476663488
 20
272.2178444431008
 30
0.0
 10
194.3076476663488
 20
272.2178444431008
 30
0.0
 10
194.3076476663488
 20
272.2178444431008
 30
0.0
 10
194.677478910666
 20
272.4097363882192
 30
0.0
 10
194.677478910666
 20
272.4097363882192
 30
0.0
 10
194.677478910666
 20
272.4097363882192
 30
0.0
 10
194.677478910666
 20
272.482772460688
 30
0.0
 10
194.677478910666
 20
272.482772460688
 30
0.0
 10
194.677478910666
 20
272.6677742102906
 30
0.0
 10
194.625113424745
 20
272.7235847939696
 30
0.0
 10
194.4402839300303
 20
272.7235847939696
 30
0.0
 10
194.4402839300303
 20
272.7235847939696
 30
0.0
 10
193.9448788724354
 20
272.7235847939696
 30
0.0
 10
193.9448788724354
 20
272.7235847939696
 30
0.0
  0
HATCH
  5
7B
330
73
100
AcDbEntity
  8
Calque 1
 62
   179
420
  1842203
100
AcDbHatch
 10
0.0
 20
0.0
 30
0.0
210
0.0
220
0.0
230
1.0
  2
SOLID
 70
     1
 71
     0
 91
        2
 92
        1
 93
        1
 72
     4
 94
        3
 73
     0
 74
     1
 95
       65
 96
       61
 40
0.0
 40
0.0
 40
0.0
 40
0.0
 40
1.0
 40
1.0
 40
1.0
 40
2.0
 40
2.0
 40
2.0
 40
3.0
 40
3.0
 40
3.0
 40
4.0
 40
4.0
 40
4.0
 40
5.0
 40
5.0
 40
5.0
 40
6.0
 40
6.0
 40
6.0
 40
7.0
 40
7.0
 40
7.0
 40
8.0
 40
8.0
 40
8.0
 40
9.0
 40
9.0
 40
9.0
 40
10.0
 40
10.0
 40
10.0
 40
11.0
 40
11.0
 40
11.0
 40
12.0
 40
12.0
 40
12.0
 40
13.0
 40
13.0
 40
13.0
 40
14.0
 40
14.0
 40
14.0
 40
15.0
 40
15.0
 40
15.0
 40
16.0
 40
16.0
 40
16.0
 40
17.0
 40
17.0
 40
17.0
 40
18.0
 40
18.0
 40
18.0
 40
19.0
 40
19.0
 40
19.0
 40
20.0
 40
20.0
 40
20.0
 40
20.0
 10
193.9483239701934
 20
273.4281072854727
 10
193.8508277036431
 20
273.4281072854727
 10
193.7181914399615
 20
273.4491223817963
 10
193.7181914399615
 20
273.5955390365096
 10
193.7181914399615
 20
273.7388551032408
 10
193.8367028028354
 20
273.7629707875466
 10
193.9483239701934
 20
273.7629707875466
 10
193.9483239701934
 20
273.7629707875466
 10
194.4089335404329
 20
273.7629707875466
 10
194.4089335404329
 20
273.7629707875466
 10
194.5832554869857
 20
273.7629707875466
 10
194.7088293002634
 20
273.7457452987568
 10
194.8412933090571
 20
273.6131090350752
 10
194.9704844749806
 20
273.4839178691517
 10
194.9878822186583
 20
273.3829765048434
 10
194.9913273164163
 20
273.2155447538065
 10
194.9913273164163
 20
273.2155447538065
 10
195.0262950586596
 20
272.0783179839033
 10
195.0262950586596
 20
272.0783179839033
 10
195.0297401564175
 20
271.9804772075772
 10
194.9808197682545
 20
271.8829809410269
 10
194.8691986008965
 20
271.8829809410269
 10
194.7820376276201
 20
271.8829809410269
 10
194.6948766543437
 20
271.9563615232715
 10
194.6983217521016
 20
272.0504126920638
 10
194.6983217521016
 20
272.0504126920638
 10
194.4681892218698
 20
271.9319013291899
 10
194.4681892218698
 20
271.9319013291899
 10
194.3739657981895
 20
271.8829809410269
 10
194.3705207004316
 20
271.8829809410269
 10
194.2623446308316
 20
271.8829809410269
 10
194.2623446308316
 20
271.8829809410269
 10
193.9414337746774
 20
271.8829809410269
 10
193.9414337746774
 20
271.8829809410269
 10
193.7913997673182
 20
271.8829809410269
 10
193.6833959526061
 20
271.9005509395925
 10
193.5612672370864
 20
272.0014923039008
 10
193.4217407778889
 20
272.1165585690167
 10
193.3867730356456
 20
272.2388595394244
 10
193.3867730356456
 20
272.4131814859772
 10
193.3867730356456
 20
272.4131814859772
 10
193.3867730356456
 20
272.5595981406906
 10
193.3867730356456
 20
272.5595981406906
 10
193.3867730356456
 20
272.7201396962116
 10
193.4251858756469
 20
272.8214255702957
 10
193.5507596889246
 20
272.9330467376536
 10
193.6658259540405
 20
273.0339881019619
 10
193.7950171199641
 20
273.0584482960434
 10
193.9414337746774
 20
273.0584482960434
 10
193.9414337746774
 20
273.0584482960434
 10
194.6600811669883
 20
273.0584482960434
 10
194.6600811669883
 20
273.0584482960434
 10
194.6600811669883
 20
273.0584482960434
 10
194.6600811669883
 20
273.135273976046
 10
194.6600811669883
 20
273.135273976046
 10
194.6600811669883
 20
273.3864216026014
 10
194.6042705833093
 20
273.4281072854727
 10
194.3634582500278
 20
273.4281072854727
 10
194.3634582500278
 20
273.4281072854727
 10
193.9483239701934
 20
273.4281072854727
 10
193.9483239701934
 20
273.4281072854727
 97
        0
 92
        1
 93
        1
 72
     4
 94
        3
 73
     0
 74
     1
 95
       29
 96
       25
 40
0.0
 40
0.0
 40
0.0
 40
0.0
 40
1.0
 40
1.0
 40
1.0
 40
2.0
 40
2.0
 40
2.0
 40
3.0
 40
3.0
 40
3.0
 40
4.0
 40
4.0
 40
4.0
 40
5.0
 40
5.0
 40
5.0
 40
6.0
 40
6.0
 40
6.0
 40
7.0
 40
7.0
 40
7.0
 40
8.0
 40
8.0
 40
8.0
 40
8.0
 10
193.9448788724354
 20
272.7235847939696
 10
193.854272801401
 20
272.7235847939696
 10
193.7216365377195
 20
272.699124599888
 10
193.7216365377195
 20
272.5771681392562
 10
193.7216365377195
 20
272.5771681392562
 10
193.7216365377195
 20
272.3539258045403
 10
193.7216365377195
 20
272.3539258045403
 10
193.7216365377195
 20
272.2423046371823
 10
193.857717899159
 20
272.2178444431008
 10
193.9379886769195
 20
272.2178444431008
 10
193.9379886769195
 20
272.2178444431008
 10
194.3076476663488
 20
272.2178444431008
 10
194.3076476663488
 20
272.2178444431008
 10
194.3076476663488
 20
272.2178444431008
 10
194.677478910666
 20
272.4097363882192
 10
194.677478910666
 20
272.4097363882192
 10
194.677478910666
 20
272.4097363882192
 10
194.677478910666
 20
272.482772460688
 10
194.677478910666
 20
272.482772460688
 10
194.677478910666
 20
272.6677742102906
 10
194.625113424745
 20
272.7235847939696
 10
194.4402839300303
 20
272.7235847939696
 10
194.4402839300303
 20
272.7235847939696
 10
193.9448788724354
 20
272.7235847939696
 10
193.9448788724354
 20
272.7235847939696
 97
        0
 75
     2
 76
     1
 98
        0
  0
SPLINE
  5
7C
330
73
100
AcDbEntity
  8
Calque 1
370
     0
100
AcDbSpline
210
0.0
220
0.0
230
1.0
 70
    11
 71
     3
 72
    65
 73
    61
 74
     0
 42
0.0000000001
 43
0.0000000001
 40
0.0
 40
0.0
 40
0.0
 40
0.0
 40
1.0
 40
1.0
 40
1.0
 40
2.0
 40
2.0
 40
2.0
 40
3.0
 40
3.0
 40
3.0
 40
4.0
 40
4.0
 40
4.0
 40
5.0
 40
5.0
 40
5.0
 40
6.0
 40
6.0
 40
6.0
 40
7.0
 40
7.0
 40
7.0
 40
8.0
 40
8.0
 40
8.0
 40
9.0
 40
9.0
 40
9.0
 40
10.0
 40
10.0
 40
10.0
 40
11.0
 40
11.0
 40
11.0
 40
12.0
 40
12.0
 40
12.0
 40
13.0
 40
13.0
 40
13.0
 40
14.0
 40
14.0
 40
14.0
 40
15.0
 40
15.0
 40
15.0
 40
16.0
 40
16.0
 40
16.0
 40
17.0
 40
17.0
 40
17.0
 40
18.0
 40
18.0
 40
18.0
 40
19.0
 40
19.0
 40
19.0
 40
20.0
 40
20.0
 40
20.0
 40
20.0
 10
196.2315625092825
 20
273.5190578662829
 30
0.0
 10
196.2315625092825
 20
273.5190578662829
 30
0.0
 10
196.2909904456073
 20
273.5783135477199
 30
0.0
 10
196.2909904456073
 20
273.5783135477199
 30
0.0
 10
196.4026116129653
 20
273.6899347150778
 30
0.0
 10
196.4687574899181
 20
273.7629707875466
 30
0.0
 10
196.6222365950353
 20
273.7629707875466
 30
0.0
 10
196.6222365950353
 20
273.7629707875466
 30
0.0
 10
196.9920678393525
 20
273.7629707875466
 30
0.0
 10
196.9920678393525
 20
273.7629707875466
 30
0.0
 10
197.079228812629
 20
273.7629707875466
 30
0.0
 10
197.1560544926315
 20
273.7143949091594
 30
0.0
 10
197.23977036815
 20
273.6444594246727
 30
0.0
 10
197.23977036815
 20
273.6444594246727
 30
0.0
 10
197.3548366332659
 20
273.5469631581224
 30
0.0
 10
197.3548366332659
 20
273.5469631581224
 30
0.0
 10
197.4873006420595
 20
273.4315523832307
 30
0.0
 10
197.5362210302226
 20
273.3375012144383
 30
0.0
 10
197.5362210302226
 20
273.1597341701275
 30
0.0
 10
197.5362210302226
 20
273.1597341701275
 30
0.0
 10
197.5362210302226
 20
272.4865620682218
 30
0.0
 10
197.5362210302226
 20
272.4865620682218
 30
0.0
 10
197.5362210302226
 20
272.3084505141352
 30
0.0
 10
197.4873006420595
 20
272.2143993453428
 30
0.0
 10
197.3548366332659
 20
272.0993330802269
 30
0.0
 10
197.3548366332659
 20
272.0993330802269
 30
0.0
 10
197.23977036815
 20
272.0014923039008
 30
0.0
 10
197.23977036815
 20
272.0014923039008
 30
0.0
 10
197.1594995903895
 20
271.9353464269479
 30
0.0
 10
197.0618310689512
 20
271.8829809410269
 30
0.0
 10
196.9781151934328
 20
271.8829809410269
 30
0.0
 10
196.9781151934328
 20
271.8829809410269
 30
0.0
 10
196.6327441431971
 20
271.8829809410269
 30
0.0
 10
196.6327441431971
 20
271.8829809410269
 30
0.0
 10
196.4966627817576
 20
271.8829809410269
 30
0.0
 10
196.4026116129653
 20
271.9666968165454
 30
0.0
 10
196.308388189285
 20
272.0538577898218
 30
0.0
 10
196.308388189285
 20
272.0538577898218
 30
0.0
 10
196.2315625092825
 20
272.1272383720664
 30
0.0
 10
196.2315625092825
 20
272.1272383720664
 30
0.0
 10
196.2315625092825
 20
272.1272383720664
 30
0.0
 10
196.2315625092825
 20
272.1062232757428
 30
0.0
 10
196.2315625092825
 20
272.1062232757428
 30
0.0
 10
196.2315625092825
 20
271.9980472061428
 30
0.0
 10
196.1967670219271
 20
271.8829809410269
 30
0.0
 10
196.0641307582455
 20
271.8829809410269
 30
0.0
 10
195.9211592012902
 20
271.8829809410269
 30
0.0
 10
195.8966990072086
 20
272.0014923039008
 30
0.0
 10
195.8966990072086
 20
272.1165585690167
 30
0.0
 10
195.8966990072086
 20
272.1165585690167
 30
0.0
 10
195.8966990072086
 20
274.2235803577861
 30
0.0
 10
195.8966990072086
 20
274.2235803577861
 30
0.0
 10
195.8966990072086
 20
274.338646622902
 30
0.0
 10
195.9211592012902
 20
274.4537128880179
 30
0.0
 10
196.0641307582455
 20
274.4537128880179
 30
0.0
 10
196.2072745700889
 20
274.4537128880179
 30
0.0
 10
196.2315625092825
 20
274.338646622902
 30
0.0
 10
196.2315625092825
 20
274.2235803577861
 30
0.0
 10
196.2315625092825
 20
274.2235803577861
 30
0.0
 10
196.2315625092825
 20
273.5190578662829
 30
0.0
 10
196.2315625092825
 20
273.5190578662829
 30
0.0
  0
SPLINE
  5
7D
330
73
100
AcDbEntity
  8
Calque 1
370
     0
100
AcDbSpline
210
0.0
220
0.0
230
1.0
 70
    11
 71
     3
 72
    53
 73
    49
 74
     0
 42
0.0000000001
 43
0.0000000001
 40
0.0
 40
0.0
 40
0.0
 40
0.0
 40
1.0
 40
1.0
 40
1.0
 40
2.0
 40
2.0
 40
2.0
 40
3.0
 40
3.0
 40
3.0
 40
4.0
 40
4.0
 40
4.0
 40
5.0
 40
5.0
 40
5.0
 40
6.0
 40
6.0
 40
6.0
 40
7.0
 40
7.0
 40
7.0
 40
8.0
 40
8.0
 40
8.0
 40
9.0
 40
9.0
 40
9.0
 40
10.0
 40
10.0
 40
10.0
 40
11.0
 40
11.0
 40
11.0
 40
12.0
 40
12.0
 40
12.0
 40
13.0
 40
13.0
 40
13.0
 40
14.0
 40
14.0
 40
14.0
 40
15.0
 40
15.0
 40
15.0
 40
16.0
 40
16.0
 40
16.0
 40
16.0
 10
196.2315625092825
 20
272.6887893066141
 30
0.0
 10
196.2315625092825
 20
272.5806132370141
 30
0.0
 10
196.2455151552022
 20
272.538583044367
 30
0.0
 10
196.3326761284787
 20
272.4655469718982
 30
0.0
 10
196.3326761284787
 20
272.4655469718982
 30
0.0
 10
196.5245680735971
 20
272.3015603186192
 30
0.0
 10
196.5245680735971
 20
272.3015603186192
 30
0.0
 10
196.5664260113564
 20
272.2667648312639
 30
0.0
 10
196.6187914972774
 20
272.2178444431008
 30
0.0
 10
196.6537592395207
 20
272.2178444431008
 30
0.0
 10
196.6537592395207
 20
272.2178444431008
 30
0.0
 10
196.9083519638341
 20
272.2178444431008
 30
0.0
 10
196.9083519638341
 20
272.2178444431008
 30
0.0
 10
196.9571000971092
 20
272.2178444431008
 30
0.0
 10
196.9886227415946
 20
272.2281797363747
 30
0.0
 10
197.0129106807882
 20
272.2491948326982
 30
0.0
 10
197.0129106807882
 20
272.2491948326982
 30
0.0
 10
197.1594995903895
 20
272.3711512933301
 30
0.0
 10
197.1594995903895
 20
272.3711512933301
 30
0.0
 10
197.1977401755028
 20
272.4028461927033
 30
0.0
 10
197.2013575281487
 20
272.482772460688
 30
0.0
 10
197.2013575281487
 20
272.5492628474167
 30
0.0
 10
197.2013575281487
 20
272.5492628474167
 30
0.0
 10
197.2013575281487
 20
273.1421641715619
 30
0.0
 10
197.2013575281487
 20
273.1421641715619
 30
0.0
 10
197.2013575281487
 20
273.2083100485148
 30
0.0
 10
197.183959784471
 20
273.2606755344358
 30
0.0
 10
197.1560544926315
 20
273.2816906307593
 30
0.0
 10
197.1560544926315
 20
273.2816906307593
 30
0.0
 10
197.0024031326264
 20
273.4002019936332
 30
0.0
 10
197.0024031326264
 20
273.4002019936332
 30
0.0
 10
196.9815602911908
 20
273.4177719921988
 30
0.0
 10
196.9571000971092
 20
273.4281072854727
 30
0.0
 10
196.9223046097538
 20
273.4281072854727
 30
0.0
 10
196.9223046097538
 20
273.4281072854727
 30
0.0
 10
196.6885547268761
 20
273.4281072854727
 30
0.0
 10
196.6885547268761
 20
273.4281072854727
 30
0.0
 10
196.6432516913589
 20
273.4281072854727
 30
0.0
 10
196.5874411076799
 20
273.403991601167
 30
0.0
 10
196.5490282676787
 20
273.3688516040358
 30
0.0
 10
196.5490282676787
 20
273.3688516040358
 30
0.0
 10
196.3326761284787
 20
273.1807492664511
 30
0.0
 10
196.3326761284787
 20
273.1807492664511
 30
0.0
 10
196.2768655447997
 20
273.135273976046
 30
0.0
 10
196.2315625092825
 20
273.082908490125
 30
0.0
 10
196.2315625092825
 20
272.9816226160409
 30
0.0
 10
196.2315625092825
 20
272.9816226160409
 30
0.0
 10
196.2315625092825
 20
272.6887893066141
 30
0.0
 10
196.2315625092825
 20
272.6887893066141
 30
0.0
  0
HATCH
  5
7E
330
73
100
AcDbEntity
  8
Calque 1
 62
   179
420
  1842203
100
AcDbHatch
 10
0.0
 20
0.0
 30
0.0
210
0.0
220
0.0
230
1.0
  2
SOLID
 70
     1
 71
     0
 91
        2
 92
        1
 93
        1
 72
     4
 94
        3
 73
     0
 74
     1
 95
       65
 96
       61
 40
0.0
 40
0.0
 40
0.0
 40
0.0
 40
1.0
 40
1.0
 40
1.0
 40
2.0
 40
2.0
 40
2.0
 40
3.0
 40
3.0
 40
3.0
 40
4.0
 40
4.0
 40
4.0
 40
5.0
 40
5.0
 40
5.0
 40
6.0
 40
6.0
 40
6.0
 40
7.0
 40
7.0
 40
7.0
 40
8.0
 40
8.0
 40
8.0
 40
9.0
 40
9.0
 40
9.0
 40
10.0
 40
10.0
 40
10.0
 40
11.0
 40
11.0
 40
11.0
 40
12.0
 40
12.0
 40
12.0
 40
13.0
 40
13.0
 40
13.0
 40
14.0
 40
14.0
 40
14.0
 40
15.0
 40
15.0
 40
15.0
 40
16.0
 40
16.0
 40
16.0
 40
17.0
 40
17.0
 40
17.0
 40
18.0
 40
18.0
 40
18.0
 40
19.0
 40
19.0
 40
19.0
 40
20.0
 40
20.0
 40
20.0
 40
20.0
 10
196.2315625092825
 20
273.5190578662829
 10
196.2315625092825
 20
273.5190578662829
 10
196.2909904456073
 20
273.5783135477199
 10
196.2909904456073
 20
273.5783135477199
 10
196.4026116129653
 20
273.6899347150778
 10
196.4687574899181
 20
273.7629707875466
 10
196.6222365950353
 20
273.7629707875466
 10
196.6222365950353
 20
273.7629707875466
 10
196.9920678393525
 20
273.7629707875466
 10
196.9920678393525
 20
273.7629707875466
 10
197.079228812629
 20
273.7629707875466
 10
197.1560544926315
 20
273.7143949091594
 10
197.23977036815
 20
273.6444594246727
 10
197.23977036815
 20
273.6444594246727
 10
197.3548366332659
 20
273.5469631581224
 10
197.3548366332659
 20
273.5469631581224
 10
197.4873006420595
 20
273.4315523832307
 10
197.5362210302226
 20
273.3375012144383
 10
197.5362210302226
 20
273.1597341701275
 10
197.5362210302226
 20
273.1597341701275
 10
197.5362210302226
 20
272.4865620682218
 10
197.5362210302226
 20
272.4865620682218
 10
197.5362210302226
 20
272.3084505141352
 10
197.4873006420595
 20
272.2143993453428
 10
197.3548366332659
 20
272.0993330802269
 10
197.3548366332659
 20
272.0993330802269
 10
197.23977036815
 20
272.0014923039008
 10
197.23977036815
 20
272.0014923039008
 10
197.1594995903895
 20
271.9353464269479
 10
197.0618310689512
 20
271.8829809410269
 10
196.9781151934328
 20
271.8829809410269
 10
196.9781151934328
 20
271.8829809410269
 10
196.6327441431971
 20
271.8829809410269
 10
196.6327441431971
 20
271.8829809410269
 10
196.4966627817576
 20
271.8829809410269
 10
196.4026116129653
 20
271.9666968165454
 10
196.308388189285
 20
272.0538577898218
 10
196.308388189285
 20
272.0538577898218
 10
196.2315625092825
 20
272.1272383720664
 10
196.2315625092825
 20
272.1272383720664
 10
196.2315625092825
 20
272.1272383720664
 10
196.2315625092825
 20
272.1062232757428
 10
196.2315625092825
 20
272.1062232757428
 10
196.2315625092825
 20
271.9980472061428
 10
196.1967670219271
 20
271.8829809410269
 10
196.0641307582455
 20
271.8829809410269
 10
195.9211592012902
 20
271.8829809410269
 10
195.8966990072086
 20
272.0014923039008
 10
195.8966990072086
 20
272.1165585690167
 10
195.8966990072086
 20
272.1165585690167
 10
195.8966990072086
 20
274.2235803577861
 10
195.8966990072086
 20
274.2235803577861
 10
195.8966990072086
 20
274.338646622902
 10
195.9211592012902
 20
274.4537128880179
 10
196.0641307582455
 20
274.4537128880179
 10
196.2072745700889
 20
274.4537128880179
 10
196.2315625092825
 20
274.338646622902
 10
196.2315625092825
 20
274.2235803577861
 10
196.2315625092825
 20
274.2235803577861
 10
196.2315625092825
 20
273.5190578662829
 10
196.2315625092825
 20
273.5190578662829
 97
        0
 92
        1
 93
        1
 72
     4
 94
        3
 73
     0
 74
     1
 95
       53
 96
       49
 40
0.0
 40
0.0
 40
0.0
 40
0.0
 40
1.0
 40
1.0
 40
1.0
 40
2.0
 40
2.0
 40
2.0
 40
3.0
 40
3.0
 40
3.0
 40
4.0
 40
4.0
 40
4.0
 40
5.0
 40
5.0
 40
5.0
 40
6.0
 40
6.0
 40
6.0
 40
7.0
 40
7.0
 40
7.0
 40
8.0
 40
8.0
 40
8.0
 40
9.0
 40
9.0
 40
9.0
 40
10.0
 40
10.0
 40
10.0
 40
11.0
 40
11.0
 40
11.0
 40
12.0
 40
12.0
 40
12.0
 40
13.0
 40
13.0
 40
13.0
 40
14.0
 40
14.0
 40
14.0
 40
15.0
 40
15.0
 40
15.0
 40
16.0
 40
16.0
 40
16.0
 40
16.0
 10
196.2315625092825
 20
272.6887893066141
 10
196.2315625092825
 20
272.5806132370141
 10
196.2455151552022
 20
272.538583044367
 10
196.3326761284787
 20
272.4655469718982
 10
196.3326761284787
 20
272.4655469718982
 10
196.5245680735971
 20
272.3015603186192
 10
196.5245680735971
 20
272.3015603186192
 10
196.5664260113564
 20
272.2667648312639
 10
196.6187914972774
 20
272.2178444431008
 10
196.6537592395207
 20
272.2178444431008
 10
196.6537592395207
 20
272.2178444431008
 10
196.9083519638341
 20
272.2178444431008
 10
196.9083519638341
 20
272.2178444431008
 10
196.9571000971092
 20
272.2178444431008
 10
196.9886227415946
 20
272.2281797363747
 10
197.0129106807882
 20
272.2491948326982
 10
197.0129106807882
 20
272.2491948326982
 10
197.1594995903895
 20
272.3711512933301
 10
197.1594995903895
 20
272.3711512933301
 10
197.1977401755028
 20
272.4028461927033
 10
197.2013575281487
 20
272.482772460688
 10
197.2013575281487
 20
272.5492628474167
 10
197.2013575281487
 20
272.5492628474167
 10
197.2013575281487
 20
273.1421641715619
 10
197.2013575281487
 20
273.1421641715619
 10
197.2013575281487
 20
273.2083100485148
 10
197.183959784471
 20
273.2606755344358
 10
197.1560544926315
 20
273.2816906307593
 10
197.1560544926315
 20
273.2816906307593
 10
197.0024031326264
 20
273.4002019936332
 10
197.0024031326264
 20
273.4002019936332
 10
196.9815602911908
 20
273.4177719921988
 10
196.9571000971092
 20
273.4281072854727
 10
196.9223046097538
 20
273.4281072854727
 10
196.9223046097538
 20
273.4281072854727
 10
196.6885547268761
 20
273.4281072854727
 10
196.6885547268761
 20
273.4281072854727
 10
196.6432516913589
 20
273.4281072854727
 10
196.5874411076799
 20
273.403991601167
 10
196.5490282676787
 20
273.3688516040358
 10
196.5490282676787
 20
273.3688516040358
 10
196.3326761284787
 20
273.1807492664511
 10
196.3326761284787
 20
273.1807492664511
 10
196.2768655447997
 20
273.135273976046
 10
196.2315625092825
 20
273.082908490125
 10
196.2315625092825
 20
272.9816226160409
 10
196.2315625092825
 20
272.9816226160409
 10
196.2315625092825
 20
272.6887893066141
 10
196.2315625092825
 20
272.6887893066141
 97
        0
 75
     2
 76
     1
 98
        0
  0
SPLINE
  5
7F
330
73
100
AcDbEntity
  8
Calque 1
370
     0
100
AcDbSpline
210
0.0
220
0.0
230
1.0
 70
    11
 71
     3
 72
    62
 73
    58
 74
     0
 42
0.0000000001
 43
0.0000000001
 40
0.0
 40
0.0
 40
0.0
 40
0.0
 40
1.0
 40
1.0
 40
1.0
 40
2.0
 40
2.0
 40
2.0
 40
3.0
 40
3.0
 40
3.0
 40
4.0
 40
4.0
 40
4.0
 40
5.0
 40
5.0
 40
5.0
 40
6.0
 40
6.0
 40
6.0
 40
7.0
 40
7.0
 40
7.0
 40
8.0
 40
8.0
 40
8.0
 40
9.0
 40
9.0
 40
9.0
 40
10.0
 40
10.0
 40
10.0
 40
11.0
 40
11.0
 40
11.0
 40
12.0
 40
12.0
 40
12.0
 40
13.0
 40
13.0
 40
13.0
 40
14.0
 40
14.0
 40
14.0
 40
15.0
 40
15.0
 40
15.0
 40
16.0
 40
16.0
 40
16.0
 40
17.0
 40
17.0
 40
17.0
 40
18.0
 40
18.0
 40
18.0
 40
19.0
 40
19.0
 40
19.0
 40
19.0
 10
198.4067972336595
 20
273.5156127685249
 30
0.0
 10
198.4067972336595
 20
273.6375692291568
 30
0.0
 10
198.4207498795792
 20
273.7629707875466
 30
0.0
 10
198.5742289846964
 20
273.7629707875466
 30
0.0
 10
198.706865248378
 20
273.7629707875466
 30
0.0
 10
198.7416607357334
 20
273.6513496201886
 30
0.0
 10
198.7416607357334
 20
273.5397284528307
 30
0.0
 10
198.7416607357334
 20
273.5397284528307
 30
0.0
 10
198.7416607357334
 20
273.403991601167
 30
0.0
 10
198.7416607357334
 20
273.403991601167
 30
0.0
 10
198.7416607357334
 20
273.403991601167
 30
0.0
 10
199.0033159104506
 20
273.6199992305912
 30
0.0
 10
199.0033159104506
 20
273.6199992305912
 30
0.0
 10
199.0975393341308
 20
273.6968249105937
 30
0.0
 10
199.195207855569
 20
273.7629707875466
 30
0.0
 10
199.2997665725232
 20
273.7629707875466
 30
0.0
 10
199.2997665725232
 20
273.7629707875466
 30
0.0
 10
199.5683119427563
 20
273.7629707875466
 30
0.0
 10
199.5683119427563
 20
273.7629707875466
 30
0.0
 10
199.6975031086799
 20
273.7629707875466
 30
0.0
 10
199.8056791782798
 20
273.7212851046752
 30
0.0
 10
199.8962852493142
 20
273.6306790336409
 30
0.0
 10
200.0079064166722
 20
273.5190578662829
 30
0.0
 10
200.0463192566735
 20
273.403991601167
 30
0.0
 10
200.0463192566735
 20
273.2503402411619
 30
0.0
 10
200.0463192566735
 20
273.135273976046
 30
0.0
 10
200.0253041603499
 20
273.0167626131721
 30
0.0
 10
199.8823326033945
 20
273.0167626131721
 30
0.0
 10
199.7602038878748
 20
273.0167626131721
 30
0.0
 10
199.7114557545996
 20
273.1142588797224
 30
0.0
 10
199.7114557545996
 20
273.2224349493224
 30
0.0
 10
199.7114557545996
 20
273.2782455330014
 30
0.0
 10
199.7114557545996
 20
273.3199312158727
 30
0.0
 10
199.6764880123563
 20
273.3688516040358
 30
0.0
 10
199.6346300745971
 20
273.4281072854727
 30
0.0
 10
199.5545315517244
 20
273.4281072854727
 30
0.0
 10
199.4742607739639
 20
273.4281072854727
 30
0.0
 10
199.4742607739639
 20
273.4281072854727
 30
0.0
 10
199.3765922525257
 20
273.4281072854727
 30
0.0
 10
199.3765922525257
 20
273.4281072854727
 30
0.0
 10
199.3137192184429
 20
273.4281072854727
 30
0.0
 10
199.2684161829257
 20
273.3967568958753
 30
0.0
 10
199.2091605014888
 20
273.348181017488
 30
0.0
 10
199.2091605014888
 20
273.348181017488
 30
0.0
 10
198.7416607357334
 20
272.9609520294931
 30
0.0
 10
198.7416607357334
 20
272.9609520294931
 30
0.0
 10
198.7416607357334
 20
272.9609520294931
 30
0.0
 10
198.7416607357334
 20
272.1131134712587
 30
0.0
 10
198.7416607357334
 20
272.1131134712587
 30
0.0
 10
198.7416607357334
 20
271.9980472061428
 30
0.0
 10
198.7173727965397
 20
271.8829809410269
 30
0.0
 10
198.5742289846964
 20
271.8829809410269
 30
0.0
 10
198.431257427741
 20
271.8829809410269
 30
0.0
 10
198.4067972336595
 20
271.9980472061428
 30
0.0
 10
198.4067972336595
 20
272.1131134712587
 30
0.0
 10
198.4067972336595
 20
272.1131134712587
 30
0.0
 10
198.4067972336595
 20
273.5156127685249
 30
0.0
 10
198.4067972336595
 20
273.5156127685249
 30
0.0
  0
HATCH
  5
80
330
73
100
AcDbEntity
  8
Calque 1
 62
   179
420
  1842203
100
AcDbHatch
 10
0.0
 20
0.0
 30
0.0
210
0.0
220
0.0
230
1.0
  2
SOLID
 70
     1
 71
     0
 91
        1
 92
        1
 93
        1
 72
     4
 94
        3
 73
     0
 74
     1
 95
       62
 96
       58
 40
0.0
 40
0.0
 40
0.0
 40
0.0
 40
1.0
 40
1.0
 40
1.0
 40
2.0
 40
2.0
 40
2.0
 40
3.0
 40
3.0
 40
3.0
 40
4.0
 40
4.0
 40
4.0
 40
5.0
 40
5.0
 40
5.0
 40
6.0
 40
6.0
 40
6.0
 40
7.0
 40
7.0
 40
7.0
 40
8.0
 40
8.0
 40
8.0
 40
9.0
 40
9.0
 40
9.0
 40
10.0
 40
10.0
 40
10.0
 40
11.0
 40
11.0
 40
11.0
 40
12.0
 40
12.0
 40
12.0
 40
13.0
 40
13.0
 40
13.0
 40
14.0
 40
14.0
 40
14.0
 40
15.0
 40
15.0
 40
15.0
 40
16.0
 40
16.0
 40
16.0
 40
17.0
 40
17.0
 40
17.0
 40
18.0
 40
18.0
 40
18.0
 40
19.0
 40
19.0
 40
19.0
 40
19.0
 10
198.4067972336595
 20
273.5156127685249
 10
198.4067972336595
 20
273.6375692291568
 10
198.4207498795792
 20
273.7629707875466
 10
198.5742289846964
 20
273.7629707875466
 10
198.706865248378
 20
273.7629707875466
 10
198.7416607357334
 20
273.6513496201886
 10
198.7416607357334
 20
273.5397284528307
 10
198.7416607357334
 20
273.5397284528307
 10
198.7416607357334
 20
273.403991601167
 10
198.7416607357334
 20
273.403991601167
 10
198.7416607357334
 20
273.403991601167
 10
199.0033159104506
 20
273.6199992305912
 10
199.0033159104506
 20
273.6199992305912
 10
199.0975393341308
 20
273.6968249105937
 10
199.195207855569
 20
273.7629707875466
 10
199.2997665725232
 20
273.7629707875466
 10
199.2997665725232
 20
273.7629707875466
 10
199.5683119427563
 20
273.7629707875466
 10
199.5683119427563
 20
273.7629707875466
 10
199.6975031086799
 20
273.7629707875466
 10
199.8056791782798
 20
273.7212851046752
 10
199.8962852493142
 20
273.6306790336409
 10
200.0079064166722
 20
273.5190578662829
 10
200.0463192566735
 20
273.403991601167
 10
200.0463192566735
 20
273.2503402411619
 10
200.0463192566735
 20
273.135273976046
 10
200.0253041603499
 20
273.0167626131721
 10
199.8823326033945
 20
273.0167626131721
 10
199.7602038878748
 20
273.0167626131721
 10
199.7114557545996
 20
273.1142588797224
 10
199.7114557545996
 20
273.2224349493224
 10
199.7114557545996
 20
273.2782455330014
 10
199.7114557545996
 20
273.3199312158727
 10
199.6764880123563
 20
273.3688516040358
 10
199.6346300745971
 20
273.4281072854727
 10
199.5545315517244
 20
273.4281072854727
 10
199.4742607739639
 20
273.4281072854727
 10
199.4742607739639
 20
273.4281072854727
 10
199.3765922525257
 20
273.4281072854727
 10
199.3765922525257
 20
273.4281072854727
 10
199.3137192184429
 20
273.4281072854727
 10
199.2684161829257
 20
273.3967568958753
 10
199.2091605014888
 20
273.348181017488
 10
199.2091605014888
 20
273.348181017488
 10
198.7416607357334
 20
272.9609520294931
 10
198.7416607357334
 20
272.9609520294931
 10
198.7416607357334
 20
272.9609520294931
 10
198.7416607357334
 20
272.1131134712587
 10
198.7416607357334
 20
272.1131134712587
 10
198.7416607357334
 20
271.9980472061428
 10
198.7173727965397
 20
271.8829809410269
 10
198.5742289846964
 20
271.8829809410269
 10
198.431257427741
 20
271.8829809410269
 10
198.4067972336595
 20
271.9980472061428
 10
198.4067972336595
 20
272.1131134712587
 10
198.4067972336595
 20
272.1131134712587
 10
198.4067972336595
 20
273.5156127685249
 10
198.4067972336595
 20
273.5156127685249
 97
        0
 75
     2
 76
     1
 98
        0
  0
SPLINE
  5
81
330
73
100
AcDbEntity
  8
Calque 1
370
     0
100
AcDbSpline
210
0.0
220
0.0
230
1.0
 70
    11
 71
     3
 72
    47
 73
    43
 74
     0
 42
0.0000000001
 43
0.0000000001
 40
0.0
 40
0.0
 40
0.0
 40
0.0
 40
1.0
 40
1.0
 40
1.0
 40
2.0
 40
2.0
 40
2.0
 40
3.0
 40
3.0
 40
3.0
 40
4.0
 40
4.0
 40
4.0
 40
5.0
 40
5.0
 40
5.0
 40
6.0
 40
6.0
 40
6.0
 40
7.0
 40
7.0
 40
7.0
 40
8.0
 40
8.0
 40
8.0
 40
9.0
 40
9.0
 40
9.0
 40
10.0
 40
10.0
 40
10.0
 40
11.0
 40
11.0
 40
11.0
 40
12.0
 40
12.0
 40
12.0
 40
13.0
 40
13.0
 40
13.0
 40
14.0
 40
14.0
 40
14.0
 40
14.0
 10
201.9109784181702
 20
272.2178444431008
 30
0.0
 10
201.9109784181702
 20
272.2178444431008
 30
0.0
 10
202.1621260447256
 20
272.2178444431008
 30
0.0
 10
202.1621260447256
 20
272.2178444431008
 30
0.0
 10
202.2737472120836
 20
272.2178444431008
 30
0.0
 10
202.3922585749575
 20
272.1933842490192
 30
0.0
 10
202.3922585749575
 20
272.0504126920638
 30
0.0
 10
202.3922585749575
 20
271.9039960373505
 30
0.0
 10
202.259622311276
 20
271.8829809410269
 30
0.0
 10
202.1621260447256
 20
271.8829809410269
 30
0.0
 10
202.1621260447256
 20
271.8829809410269
 30
0.0
 10
201.3108423887333
 20
271.8829809410269
 30
0.0
 10
201.3108423887333
 20
271.8829809410269
 30
0.0
 10
201.213346122183
 20
271.8829809410269
 30
0.0
 10
201.0807098585015
 20
271.9039960373505
 30
0.0
 10
201.0807098585015
 20
272.0504126920638
 30
0.0
 10
201.0807098585015
 20
272.1933842490192
 30
0.0
 10
201.1992212213754
 20
272.2178444431008
 30
0.0
 10
201.3108423887333
 20
272.2178444431008
 30
0.0
 10
201.3108423887333
 20
272.2178444431008
 30
0.0
 10
201.5761149160963
 20
272.2178444431008
 30
0.0
 10
201.5761149160963
 20
272.2178444431008
 30
0.0
 10
201.5761149160963
 20
272.2178444431008
 30
0.0
 10
201.5761149160963
 20
273.4281072854727
 30
0.0
 10
201.5761149160963
 20
273.4281072854727
 30
0.0
 10
201.5761149160963
 20
273.4281072854727
 30
0.0
 10
201.3108423887333
 20
273.4281072854727
 30
0.0
 10
201.3108423887333
 20
273.4281072854727
 30
0.0
 10
201.213346122183
 20
273.4281072854727
 30
0.0
 10
201.0807098585015
 20
273.4491223817963
 30
0.0
 10
201.0807098585015
 20
273.5955390365096
 30
0.0
 10
201.0807098585015
 20
273.7388551032408
 30
0.0
 10
201.1992212213754
 20
273.7629707875466
 30
0.0
 10
201.3108423887333
 20
273.7629707875466
 30
0.0
 10
201.3108423887333
 20
273.7629707875466
 30
0.0
 10
201.6632758893728
 20
273.7629707875466
 30
0.0
 10
201.6632758893728
 20
273.7629707875466
 30
0.0
 10
201.8551678344913
 20
273.7629707875466
 30
0.0
 10
201.9109784181702
 20
273.7281753001912
 30
0.0
 10
201.9109784181702
 20
273.5293931595568
 30
0.0
 10
201.9109784181702
 20
273.5293931595568
 30
0.0
 10
201.9109784181702
 20
272.2178444431008
 30
0.0
 10
201.9109784181702
 20
272.2178444431008
 30
0.0
  0
SPLINE
  5
82
330
73
100
AcDbEntity
  8
Calque 1
370
     0
100
AcDbSpline
210
0.0
220
0.0
230
1.0
 70
    11
 71
     3
 72
    29
 73
    25
 74
     0
 42
0.0000000001
 43
0.0000000001
 40
0.0
 40
0.0
 40
0.0
 40
0.0
 40
1.0
 40
1.0
 40
1.0
 40
2.0
 40
2.0
 40
2.0
 40
3.0
 40
3.0
 40
3.0
 40
4.0
 40
4.0
 40
4.0
 40
5.0
 40
5.0
 40
5.0
 40
6.0
 40
6.0
 40
6.0
 40
7.0
 40
7.0
 40
7.0
 40
8.0
 40
8.0
 40
8.0
 40
8.0
 10
201.4050658124136
 20
274.439932496986
 30
0.0
 10
201.4050658124136
 20
274.5584438598599
 30
0.0
 10
201.4713839442543
 20
274.5966844449733
 30
0.0
 10
201.5619900152887
 20
274.5966844449733
 30
0.0
 10
201.5619900152887
 20
274.5966844449733
 30
0.0
 10
201.7538819604072
 20
274.5966844449733
 30
0.0
 10
201.7538819604072
 20
274.5966844449733
 30
0.0
 10
201.8446602863295
 20
274.5966844449733
 30
0.0
 10
201.9109784181702
 20
274.5584438598599
 30
0.0
 10
201.9109784181702
 20
274.439932496986
 30
0.0
 10
201.9109784181702
 20
274.439932496986
 30
0.0
 10
201.9109784181702
 20
274.2793909414651
 30
0.0
 10
201.9109784181702
 20
274.2793909414651
 30
0.0
 10
201.9109784181702
 20
274.1608795785912
 30
0.0
 10
201.8446602863295
 20
274.122294483702
 30
0.0
 10
201.7538819604072
 20
274.122294483702
 30
0.0
 10
201.7538819604072
 20
274.122294483702
 30
0.0
 10
201.5619900152887
 20
274.122294483702
 30
0.0
 10
201.5619900152887
 20
274.122294483702
 30
0.0
 10
201.4713839442543
 20
274.122294483702
 30
0.0
 10
201.4050658124136
 20
274.1608795785912
 30
0.0
 10
201.4050658124136
 20
274.2793909414651
 30
0.0
 10
201.4050658124136
 20
274.2793909414651
 30
0.0
 10
201.4050658124136
 20
274.439932496986
 30
0.0
 10
201.4050658124136
 20
274.439932496986
 30
0.0
  0
HATCH
  5
83
330
73
100
AcDbEntity
  8
Calque 1
 62
   179
420
  1842203
100
AcDbHatch
 10
0.0
 20
0.0
 30
0.0
210
0.0
220
0.0
230
1.0
  2
SOLID
 70
     1
 71
     0
 91
        2
 92
        1
 93
        1
 72
     4
 94
        3
 73
     0
 74
     1
 95
       47
 96
       43
 40
0.0
 40
0.0
 40
0.0
 40
0.0
 40
1.0
 40
1.0
 40
1.0
 40
2.0
 40
2.0
 40
2.0
 40
3.0
 40
3.0
 40
3.0
 40
4.0
 40
4.0
 40
4.0
 40
5.0
 40
5.0
 40
5.0
 40
6.0
 40
6.0
 40
6.0
 40
7.0
 40
7.0
 40
7.0
 40
8.0
 40
8.0
 40
8.0
 40
9.0
 40
9.0
 40
9.0
 40
10.0
 40
10.0
 40
10.0
 40
11.0
 40
11.0
 40
11.0
 40
12.0
 40
12.0
 40
12.0
 40
13.0
 40
13.0
 40
13.0
 40
14.0
 40
14.0
 40
14.0
 40
14.0
 10
201.9109784181702
 20
272.2178444431008
 10
201.9109784181702
 20
272.2178444431008
 10
202.1621260447256
 20
272.2178444431008
 10
202.1621260447256
 20
272.2178444431008
 10
202.2737472120836
 20
272.2178444431008
 10
202.3922585749575
 20
272.1933842490192
 10
202.3922585749575
 20
272.0504126920638
 10
202.3922585749575
 20
271.9039960373505
 10
202.259622311276
 20
271.8829809410269
 10
202.1621260447256
 20
271.8829809410269
 10
202.1621260447256
 20
271.8829809410269
 10
201.3108423887333
 20
271.8829809410269
 10
201.3108423887333
 20
271.8829809410269
 10
201.213346122183
 20
271.8829809410269
 10
201.0807098585015
 20
271.9039960373505
 10
201.0807098585015
 20
272.0504126920638
 10
201.0807098585015
 20
272.1933842490192
 10
201.1992212213754
 20
272.2178444431008
 10
201.3108423887333
 20
272.2178444431008
 10
201.3108423887333
 20
272.2178444431008
 10
201.5761149160963
 20
272.2178444431008
 10
201.5761149160963
 20
272.2178444431008
 10
201.5761149160963
 20
272.2178444431008
 10
201.5761149160963
 20
273.4281072854727
 10
201.5761149160963
 20
273.4281072854727
 10
201.5761149160963
 20
273.4281072854727
 10
201.3108423887333
 20
273.4281072854727
 10
201.3108423887333
 20
273.4281072854727
 10
201.213346122183
 20
273.4281072854727
 10
201.0807098585015
 20
273.4491223817963
 10
201.0807098585015
 20
273.5955390365096
 10
201.0807098585015
 20
273.7388551032408
 10
201.1992212213754
 20
273.7629707875466
 10
201.3108423887333
 20
273.7629707875466
 10
201.3108423887333
 20
273.7629707875466
 10
201.6632758893728
 20
273.7629707875466
 10
201.6632758893728
 20
273.7629707875466
 10
201.8551678344913
 20
273.7629707875466
 10
201.9109784181702
 20
273.7281753001912
 10
201.9109784181702
 20
273.5293931595568
 10
201.9109784181702
 20
273.5293931595568
 10
201.9109784181702
 20
272.2178444431008
 10
201.9109784181702
 20
272.2178444431008
 97
        0
 92
        1
 93
        1
 72
     4
 94
        3
 73
     0
 74
     1
 95
       29
 96
       25
 40
0.0
 40
0.0
 40
0.0
 40
0.0
 40
1.0
 40
1.0
 40
1.0
 40
2.0
 40
2.0
 40
2.0
 40
3.0
 40
3.0
 40
3.0
 40
4.0
 40
4.0
 40
4.0
 40
5.0
 40
5.0
 40
5.0
 40
6.0
 40
6.0
 40
6.0
 40
7.0
 40
7.0
 40
7.0
 40
8.0
 40
8.0
 40
8.0
 40
8.0
 10
201.4050658124136
 20
274.439932496986
 10
201.4050658124136
 20
274.5584438598599
 10
201.4713839442543
 20
274.5966844449733
 10
201.5619900152887
 20
274.5966844449733
 10
201.5619900152887
 20
274.5966844449733
 10
201.7538819604072
 20
274.5966844449733
 10
201.7538819604072
 20
274.5966844449733
 10
201.8446602863295
 20
274.5966844449733
 10
201.9109784181702
 20
274.5584438598599
 10
201.9109784181702
 20
274.439932496986
 10
201.9109784181702
 20
274.439932496986
 10
201.9109784181702
 20
274.2793909414651
 10
201.9109784181702
 20
274.2793909414651
 10
201.9109784181702
 20
274.1608795785912
 10
201.8446602863295
 20
274.122294483702
 10
201.7538819604072
 20
274.122294483702
 10
201.7538819604072
 20
274.122294483702
 10
201.5619900152887
 20
274.122294483702
 10
201.5619900152887
 20
274.122294483702
 10
201.4713839442543
 20
274.122294483702
 10
201.4050658124136
 20
274.1608795785912
 10
201.4050658124136
 20
274.2793909414651
 10
201.4050658124136
 20
274.2793909414651
 10
201.4050658124136
 20
274.439932496986
 10
201.4050658124136
 20
274.439932496986
 97
        0
 75
     2
 76
     1
 98
        0
  0
SPLINE
  5
84
330
73
100
AcDbEntity
  8
Calque 1
370
     0
100
AcDbSpline
210
0.0
220
0.0
230
1.0
 70
    11
 71
     3
 72
    65
 73
    61
 74
     0
 42
0.0000000001
 43
0.0000000001
 40
0.0
 40
0.0
 40
0.0
 40
0.0
 40
1.0
 40
1.0
 40
1.0
 40
2.0
 40
2.0
 40
2.0
 40
3.0
 40
3.0
 40
3.0
 40
4.0
 40
4.0
 40
4.0
 40
5.0
 40
5.0
 40
5.0
 40
6.0
 40
6.0
 40
6.0
 40
7.0
 40
7.0
 40
7.0
 40
8.0
 40
8.0
 40
8.0
 40
9.0
 40
9.0
 40
9.0
 40
10.0
 40
10.0
 40
10.0
 40
11.0
 40
11.0
 40
11.0
 40
12.0
 40
12.0
 40
12.0
 40
13.0
 40
13.0
 40
13.0
 40
14.0
 40
14.0
 40
14.0
 40
15.0
 40
15.0
 40
15.0
 40
16.0
 40
16.0
 40
16.0
 40
17.0
 40
17.0
 40
17.0
 40
18.0
 40
18.0
 40
18.0
 40
19.0
 40
19.0
 40
19.0
 40
20.0
 40
20.0
 40
20.0
 40
20.0
 10
205.0663434546873
 20
271.4017007842397
 30
0.0
 10
205.0663434546873
 20
271.2866345191237
 30
0.0
 10
205.0418832606058
 20
271.1715682540078
 30
0.0
 10
204.8989117036504
 20
271.1715682540078
 30
0.0
 10
204.755940146695
 20
271.1715682540078
 30
0.0
 10
204.7314799526135
 20
271.2866345191237
 30
0.0
 10
204.7314799526135
 20
271.4017007842397
 30
0.0
 10
204.7314799526135
 20
271.4017007842397
 30
0.0
 10
204.7314799526135
 20
272.1272383720664
 30
0.0
 10
204.7314799526135
 20
272.1272383720664
 30
0.0
 10
204.7314799526135
 20
272.1272383720664
 30
0.0
 10
204.6722242711765
 20
272.0679826906294
 30
0.0
 10
204.6722242711765
 20
272.0679826906294
 30
0.0
 10
204.5814459452542
 20
271.9770321098193
 30
0.0
 10
204.4906676193319
 20
271.8829809410269
 30
0.0
 10
204.3408058668606
 20
271.8829809410269
 30
0.0
 10
204.3408058668606
 20
271.8829809410269
 30
0.0
 10
204.0441829499001
 20
271.8829809410269
 30
0.0
 10
204.0441829499001
 20
271.8829809410269
 30
0.0
 10
203.9012113929447
 20
271.8829809410269
 30
0.0
 10
203.831448163346
 20
271.9108862328664
 30
0.0
 10
203.7234443486339
 20
272.0014923039008
 30
0.0
 10
203.7234443486339
 20
272.0014923039008
 30
0.0
 10
203.60820582863
 20
272.0993330802269
 30
0.0
 10
203.60820582863
 20
272.0993330802269
 30
0.0
 10
203.4686793694326
 20
272.2178444431008
 30
0.0
 10
203.4268214316734
 20
272.3084505141352
 30
0.0
 10
203.4268214316734
 20
272.4865620682218
 30
0.0
 10
203.4268214316734
 20
272.4865620682218
 30
0.0
 10
203.4268214316734
 20
273.1597341701275
 30
0.0
 10
203.4268214316734
 20
273.1597341701275
 30
0.0
 10
203.4268214316734
 20
273.3375012144383
 30
0.0
 10
203.4686793694326
 20
273.4281072854727
 30
0.0
 10
203.60820582863
 20
273.5469631581224
 30
0.0
 10
203.60820582863
 20
273.5469631581224
 30
0.0
 10
203.7234443486339
 20
273.6444594246727
 30
0.0
 10
203.7234443486339
 20
273.6444594246727
 30
0.0
 10
203.828003065588
 20
273.7350654957071
 30
0.0
 10
203.9046564907026
 20
273.7629707875466
 30
0.0
 10
204.0441829499001
 20
273.7629707875466
 30
0.0
 10
204.0441829499001
 20
273.7629707875466
 30
0.0
 10
204.3337434164568
 20
273.7629707875466
 30
0.0
 10
204.3337434164568
 20
273.7629707875466
 30
0.0
 10
204.4453645838148
 20
273.7629707875466
 30
0.0
 10
204.5500955556568
 20
273.6933798128358
 30
0.0
 10
204.6546542726109
 20
273.5920939387517
 30
0.0
 10
204.6546542726109
 20
273.5920939387517
 30
0.0
 10
204.7314799526135
 20
273.5190578662829
 30
0.0
 10
204.7314799526135
 20
273.5190578662829
 30
0.0
 10
204.7314799526135
 20
273.5190578662829
 30
0.0
 10
204.7314799526135
 20
273.5397284528307
 30
0.0
 10
204.7314799526135
 20
273.5397284528307
 30
0.0
 10
204.7314799526135
 20
273.6513496201886
 30
0.0
 10
204.7628303422109
 20
273.7629707875466
 30
0.0
 10
204.8989117036504
 20
273.7629707875466
 30
0.0
 10
205.0418832606058
 20
273.7629707875466
 30
0.0
 10
205.0663434546873
 20
273.6444594246727
 30
0.0
 10
205.0663434546873
 20
273.5293931595568
 30
0.0
 10
205.0663434546873
 20
273.5293931595568
 30
0.0
 10
205.0663434546873
 20
271.4017007842397
 30
0.0
 10
205.0663434546873
 20
271.4017007842397
 30
0.0
  0
SPLINE
  5
85
330
73
100
AcDbEntity
  8
Calque 1
370
     0
100
AcDbSpline
210
0.0
220
0.0
230
1.0
 70
    11
 71
     3
 72
    47
 73
    43
 74
     0
 42
0.0000000001
 43
0.0000000001
 40
0.0
 40
0.0
 40
0.0
 40
0.0
 40
1.0
 40
1.0
 40
1.0
 40
2.0
 40
2.0
 40
2.0
 40
3.0
 40
3.0
 40
3.0
 40
4.0
 40
4.0
 40
4.0
 40
5.0
 40
5.0
 40
5.0
 40
6.0
 40
6.0
 40
6.0
 40
7.0
 40
7.0
 40
7.0
 40
8.0
 40
8.0
 40
8.0
 40
9.0
 40
9.0
 40
9.0
 40
10.0
 40
10.0
 40
10.0
 40
11.0
 40
11.0
 40
11.0
 40
12.0
 40
12.0
 40
12.0
 40
13.0
 40
13.0
 40
13.0
 40
14.0
 40
14.0
 40
14.0
 40
14.0
 10
204.7314799526135
 20
273.0305430042039
 30
0.0
 10
204.7314799526135
 20
273.1073686842065
 30
0.0
 10
204.6791144666925
 20
273.1387190738039
 30
0.0
 10
204.6301940785294
 20
273.1807492664511
 30
0.0
 10
204.6301940785294
 20
273.1807492664511
 30
0.0
 10
204.4384743882988
 20
273.3443914099543
 30
0.0
 10
204.4384743882988
 20
273.3443914099543
 30
0.0
 10
204.375601354216
 20
273.4002019936332
 30
0.0
 10
204.3442509646186
 20
273.4281072854727
 30
0.0
 10
204.2710426372619
 20
273.4281072854727
 30
0.0
 10
204.2710426372619
 20
273.4281072854727
 30
0.0
 10
204.0686431439816
 20
273.4281072854727
 30
0.0
 10
204.0686431439816
 20
273.4281072854727
 30
0.0
 10
204.0059423647867
 20
273.4281072854727
 30
0.0
 10
203.9535768788657
 20
273.403991601167
 30
0.0
 10
203.8943211974288
 20
273.355071213004
 30
0.0
 10
203.8174955174262
 20
273.292370433809
 30
0.0
 10
203.7616849337473
 20
273.2434500456459
 30
0.0
 10
203.7616849337473
 20
273.1597341701275
 30
0.0
 10
203.7616849337473
 20
273.1597341701275
 30
0.0
 10
203.7616849337473
 20
272.4865620682218
 30
0.0
 10
203.7616849337473
 20
272.4865620682218
 30
0.0
 10
203.7616849337473
 20
272.4028461927033
 30
0.0
 10
203.8174955174262
 20
272.3539258045403
 30
0.0
 10
203.8943211974288
 20
272.2912250253453
 30
0.0
 10
203.9535768788657
 20
272.2423046371823
 30
0.0
 10
204.0059423647867
 20
272.2178444431008
 30
0.0
 10
204.0686431439816
 20
272.2178444431008
 30
0.0
 10
204.0686431439816
 20
272.2178444431008
 30
0.0
 10
204.2710426372619
 20
272.2178444431008
 30
0.0
 10
204.2710426372619
 20
272.2178444431008
 30
0.0
 10
204.3442509646186
 20
272.2178444431008
 30
0.0
 10
204.375601354216
 20
272.2491948326982
 30
0.0
 10
204.4384743882988
 20
272.3015603186192
 30
0.0
 10
204.4384743882988
 20
272.3015603186192
 30
0.0
 10
204.6301940785294
 20
272.4655469718982
 30
0.0
 10
204.6301940785294
 20
272.4655469718982
 30
0.0
 10
204.6791144666925
 20
272.5072326547696
 30
0.0
 10
204.7314799526135
 20
272.538583044367
 30
0.0
 10
204.7314799526135
 20
272.6119636266116
 30
0.0
 10
204.7314799526135
 20
272.6119636266116
 30
0.0
 10
204.7314799526135
 20
273.0305430042039
 30
0.0
 10
204.7314799526135
 20
273.0305430042039
 30
0.0
  0
HATCH
  5
86
330
73
100
AcDbEntity
  8
Calque 1
 62
   179
420
  1842203
100
AcDbHatch
 10
0.0
 20
0.0
 30
0.0
210
0.0
220
0.0
230
1.0
  2
SOLID
 70
     1
 71
     0
 91
        2
 92
        1
 93
        1
 72
     4
 94
        3
 73
     0
 74
     1
 95
       65
 96
       61
 40
0.0
 40
0.0
 40
0.0
 40
0.0
 40
1.0
 40
1.0
 40
1.0
 40
2.0
 40
2.0
 40
2.0
 40
3.0
 40
3.0
 40
3.0
 40
4.0
 40
4.0
 40
4.0
 40
5.0
 40
5.0
 40
5.0
 40
6.0
 40
6.0
 40
6.0
 40
7.0
 40
7.0
 40
7.0
 40
8.0
 40
8.0
 40
8.0
 40
9.0
 40
9.0
 40
9.0
 40
10.0
 40
10.0
 40
10.0
 40
11.0
 40
11.0
 40
11.0
 40
12.0
 40
12.0
 40
12.0
 40
13.0
 40
13.0
 40
13.0
 40
14.0
 40
14.0
 40
14.0
 40
15.0
 40
15.0
 40
15.0
 40
16.0
 40
16.0
 40
16.0
 40
17.0
 40
17.0
 40
17.0
 40
18.0
 40
18.0
 40
18.0
 40
19.0
 40
19.0
 40
19.0
 40
20.0
 40
20.0
 40
20.0
 40
20.0
 10
205.0663434546873
 20
271.4017007842397
 10
205.0663434546873
 20
271.2866345191237
 10
205.0418832606058
 20
271.1715682540078
 10
204.8989117036504
 20
271.1715682540078
 10
204.755940146695
 20
271.1715682540078
 10
204.7314799526135
 20
271.2866345191237
 10
204.7314799526135
 20
271.4017007842397
 10
204.7314799526135
 20
271.4017007842397
 10
204.7314799526135
 20
272.1272383720664
 10
204.7314799526135
 20
272.1272383720664
 10
204.7314799526135
 20
272.1272383720664
 10
204.6722242711765
 20
272.0679826906294
 10
204.6722242711765
 20
272.0679826906294
 10
204.5814459452542
 20
271.9770321098193
 10
204.4906676193319
 20
271.8829809410269
 10
204.3408058668606
 20
271.8829809410269
 10
204.3408058668606
 20
271.8829809410269
 10
204.0441829499001
 20
271.8829809410269
 10
204.0441829499001
 20
271.8829809410269
 10
203.9012113929447
 20
271.8829809410269
 10
203.831448163346
 20
271.9108862328664
 10
203.7234443486339
 20
272.0014923039008
 10
203.7234443486339
 20
272.0014923039008
 10
203.60820582863
 20
272.0993330802269
 10
203.60820582863
 20
272.0993330802269
 10
203.4686793694326
 20
272.2178444431008
 10
203.4268214316734
 20
272.3084505141352
 10
203.4268214316734
 20
272.4865620682218
 10
203.4268214316734
 20
272.4865620682218
 10
203.4268214316734
 20
273.1597341701275
 10
203.4268214316734
 20
273.1597341701275
 10
203.4268214316734
 20
273.3375012144383
 10
203.4686793694326
 20
273.4281072854727
 10
203.60820582863
 20
273.5469631581224
 10
203.60820582863
 20
273.5469631581224
 10
203.7234443486339
 20
273.6444594246727
 10
203.7234443486339
 20
273.6444594246727
 10
203.828003065588
 20
273.7350654957071
 10
203.9046564907026
 20
273.7629707875466
 10
204.0441829499001
 20
273.7629707875466
 10
204.0441829499001
 20
273.7629707875466
 10
204.3337434164568
 20
273.7629707875466
 10
204.3337434164568
 20
273.7629707875466
 10
204.4453645838148
 20
273.7629707875466
 10
204.5500955556568
 20
273.6933798128358
 10
204.6546542726109
 20
273.5920939387517
 10
204.6546542726109
 20
273.5920939387517
 10
204.7314799526135
 20
273.5190578662829
 10
204.7314799526135
 20
273.5190578662829
 10
204.7314799526135
 20
273.5190578662829
 10
204.7314799526135
 20
273.5397284528307
 10
204.7314799526135
 20
273.5397284528307
 10
204.7314799526135
 20
273.6513496201886
 10
204.7628303422109
 20
273.7629707875466
 10
204.8989117036504
 20
273.7629707875466
 10
205.0418832606058
 20
273.7629707875466
 10
205.0663434546873
 20
273.6444594246727
 10
205.0663434546873
 20
273.5293931595568
 10
205.0663434546873
 20
273.5293931595568
 10
205.0663434546873
 20
271.4017007842397
 10
205.0663434546873
 20
271.4017007842397
 97
        0
 92
        1
 93
        1
 72
     4
 94
        3
 73
     0
 74
     1
 95
       47
 96
       43
 40
0.0
 40
0.0
 40
0.0
 40
0.0
 40
1.0
 40
1.0
 40
1.0
 40
2.0
 40
2.0
 40
2.0
 40
3.0
 40
3.0
 40
3.0
 40
4.0
 40
4.0
 40
4.0
 40
5.0
 40
5.0
 40
5.0
 40
6.0
 40
6.0
 40
6.0
 40
7.0
 40
7.0
 40
7.0
 40
8.0
 40
8.0
 40
8.0
 40
9.0
 40
9.0
 40
9.0
 40
10.0
 40
10.0
 40
10.0
 40
11.0
 40
11.0
 40
11.0
 40
12.0
 40
12.0
 40
12.0
 40
13.0
 40
13.0
 40
13.0
 40
14.0
 40
14.0
 40
14.0
 40
14.0
 10
204.7314799526135
 20
273.0305430042039
 10
204.7314799526135
 20
273.1073686842065
 10
204.6791144666925
 20
273.1387190738039
 10
204.6301940785294
 20
273.1807492664511
 10
204.6301940785294
 20
273.1807492664511
 10
204.4384743882988
 20
273.3443914099543
 10
204.4384743882988
 20
273.3443914099543
 10
204.375601354216
 20
273.4002019936332
 10
204.3442509646186
 20
273.4281072854727
 10
204.2710426372619
 20
273.4281072854727
 10
204.2710426372619
 20
273.4281072854727
 10
204.0686431439816
 20
273.4281072854727
 10
204.0686431439816
 20
273.4281072854727
 10
204.0059423647867
 20
273.4281072854727
 10
203.9535768788657
 20
273.403991601167
 10
203.8943211974288
 20
273.355071213004
 10
203.8174955174262
 20
273.292370433809
 10
203.7616849337473
 20
273.2434500456459
 10
203.7616849337473
 20
273.1597341701275
 10
203.7616849337473
 20
273.1597341701275
 10
203.7616849337473
 20
272.4865620682218
 10
203.7616849337473
 20
272.4865620682218
 10
203.7616849337473
 20
272.4028461927033
 10
203.8174955174262
 20
272.3539258045403
 10
203.8943211974288
 20
272.2912250253453
 10
203.9535768788657
 20
272.2423046371823
 10
204.0059423647867
 20
272.2178444431008
 10
204.0686431439816
 20
272.2178444431008
 10
204.0686431439816
 20
272.2178444431008
 10
204.2710426372619
 20
272.2178444431008
 10
204.2710426372619
 20
272.2178444431008
 10
204.3442509646186
 20
272.2178444431008
 10
204.375601354216
 20
272.2491948326982
 10
204.4384743882988
 20
272.3015603186192
 10
204.4384743882988
 20
272.3015603186192
 10
204.6301940785294
 20
272.4655469718982
 10
204.6301940785294
 20
272.4655469718982
 10
204.6791144666925
 20
272.5072326547696
 10
204.7314799526135
 20
272.538583044367
 10
204.7314799526135
 20
272.6119636266116
 10
204.7314799526135
 20
272.6119636266116
 10
204.7314799526135
 20
273.0305430042039
 10
204.7314799526135
 20
273.0305430042039
 97
        0
 75
     2
 76
     1
 98
        0
  0
SPLINE
  5
87
330
73
100
AcDbEntity
  8
Calque 1
370
     0
100
AcDbSpline
210
0.0
220
0.0
230
1.0
 70
    11
 71
     3
 72
    68
 73
    64
 74
     0
 42
0.0000000001
 43
0.0000000001
 40
0.0
 40
0.0
 40
0.0
 40
0.0
 40
1.0
 40
1.0
 40
1.0
 40
2.0
 40
2.0
 40
2.0
 40
3.0
 40
3.0
 40
3.0
 40
4.0
 40
4.0
 40
4.0
 40
5.0
 40
5.0
 40
5.0
 40
6.0
 40
6.0
 40
6.0
 40
7.0
 40
7.0
 40
7.0
 40
8.0
 40
8.0
 40
8.0
 40
9.0
 40
9.0
 40
9.0
 40
10.0
 40
10.0
 40
10.0
 40
11.0
 40
11.0
 40
11.0
 40
12.0
 40
12.0
 40
12.0
 40
13.0
 40
13.0
 40
13.0
 40
14.0
 40
14.0
 40
14.0
 40
15.0
 40
15.0
 40
15.0
 40
16.0
 40
16.0
 40
16.0
 40
17.0
 40
17.0
 40
17.0
 40
18.0
 40
18.0
 40
18.0
 40
19.0
 40
19.0
 40
19.0
 40
20.0
 40
20.0
 40
20.0
 40
21.0
 40
21.0
 40
21.0
 40
21.0
 10
207.5762694262503
 20
272.1306834698244
 30
0.0
 10
207.5762694262503
 20
272.0538577898218
 30
0.0
 10
207.5902220721701
 20
271.8829809410269
 30
0.0
 10
207.4122827729714
 20
271.8829809410269
 30
0.0
 10
207.269311216016
 20
271.8829809410269
 30
0.0
 10
207.2448510219344
 20
272.0014923039008
 30
0.0
 10
207.2448510219344
 20
272.1165585690167
 30
0.0
 10
207.2448510219344
 20
272.1165585690167
 30
0.0
 10
207.2448510219344
 20
272.1723691526957
 30
0.0
 10
207.2448510219344
 20
272.1723691526957
 30
0.0
 10
207.2448510219344
 20
272.1723691526957
 30
0.0
 10
206.9728605539433
 20
271.9946021083849
 30
0.0
 10
206.9728605539433
 20
271.9946021083849
 30
0.0
 10
206.8646844843433
 20
271.9246666238982
 30
0.0
 10
206.7739061584211
 20
271.8829809410269
 30
0.0
 10
206.6833000873867
 20
271.8829809410269
 30
0.0
 10
206.6833000873867
 20
271.8829809410269
 30
0.0
 10
206.4355975585892
 20
271.8829809410269
 30
0.0
 10
206.4355975585892
 20
271.8829809410269
 30
0.0
 10
206.341374134909
 20
271.8829809410269
 30
0.0
 10
206.2368154179548
 20
271.9108862328664
 30
0.0
 10
206.1251942505969
 20
272.0049374016588
 30
0.0
 10
205.9751602432376
 20
272.1341285675823
 30
0.0
 10
205.9786053409956
 20
272.2771001245377
 30
0.0
 10
205.9717151454797
 20
272.4586567763823
 30
0.0
 10
205.9717151454797
 20
272.4586567763823
 30
0.0
 10
205.9367474032364
 20
273.5118231609912
 30
0.0
 10
205.9367474032364
 20
273.5118231609912
 30
0.0
 10
205.9333023054784
 20
273.6341241313988
 30
0.0
 10
205.9507000491561
 20
273.7629707875466
 30
0.0
 10
206.1041791542733
 20
273.7629707875466
 30
0.0
 10
206.2473229661166
 20
273.7629707875466
 30
0.0
 10
206.2647207097943
 20
273.6410143269147
 30
0.0
 10
206.2681658075523
 20
273.5328382573148
 30
0.0
 10
206.2681658075523
 20
273.5328382573148
 30
0.0
 10
206.3031335497956
 20
272.5037875570116
 30
0.0
 10
206.3031335497956
 20
272.5037875570116
 30
0.0
 10
206.3065786475536
 20
272.426961877009
 30
0.0
 10
206.3100237453115
 20
272.3363558059747
 30
0.0
 10
206.337929037151
 20
272.2877799275874
 30
0.0
 10
206.3658343289905
 20
272.2388595394244
 30
0.0
 10
206.4529953022669
 20
272.2178444431008
 30
0.0
 10
206.5332660800274
 20
272.2178444431008
 30
0.0
 10
206.5332660800274
 20
272.2178444431008
 30
0.0
 10
206.6448872473854
 20
272.2178444431008
 30
0.0
 10
206.6448872473854
 20
272.2178444431008
 30
0.0
 10
206.6833000873867
 20
272.2178444431008
 30
0.0
 10
206.7180955747421
 20
272.2281797363747
 30
0.0
 10
206.7496182192274
 20
272.2491948326982
 30
0.0
 10
206.7496182192274
 20
272.2491948326982
 30
0.0
 10
207.2414059241765
 20
272.5595981406906
 30
0.0
 10
207.2414059241765
 20
272.5595981406906
 30
0.0
 10
207.2414059241765
 20
272.5595981406906
 30
0.0
 10
207.2414059241765
 20
273.5328382573148
 30
0.0
 10
207.2414059241765
 20
273.5328382573148
 30
0.0
 10
207.2414059241765
 20
273.6479045224307
 30
0.0
 10
207.2656938633701
 20
273.7629707875466
 30
0.0
 10
207.4088376752134
 20
273.7629707875466
 30
0.0
 10
207.5518092321688
 20
273.7629707875466
 30
0.0
 10
207.5762694262503
 20
273.6479045224307
 30
0.0
 10
207.5762694262503
 20
273.5328382573148
 30
0.0
 10
207.5762694262503
 20
273.5328382573148
 30
0.0
 10
207.5762694262503
 20
272.1306834698244
 30
0.0
 10
207.5762694262503
 20
272.1306834698244
 30
0.0
  0
HATCH
  5
88
330
73
100
AcDbEntity
  8
Calque 1
 62
   179
420
  1842203
100
AcDbHatch
 10
0.0
 20
0.0
 30
0.0
210
0.0
220
0.0
230
1.0
  2
SOLID
 70
     1
 71
     0
 91
        1
 92
        1
 93
        1
 72
     4
 94
        3
 73
     0
 74
     1
 95
       68
 96
       64
 40
0.0
 40
0.0
 40
0.0
 40
0.0
 40
1.0
 40
1.0
 40
1.0
 40
2.0
 40
2.0
 40
2.0
 40
3.0
 40
3.0
 40
3.0
 40
4.0
 40
4.0
 40
4.0
 40
5.0
 40
5.0
 40
5.0
 40
6.0
 40
6.0
 40
6.0
 40
7.0
 40
7.0
 40
7.0
 40
8.0
 40
8.0
 40
8.0
 40
9.0
 40
9.0
 40
9.0
 40
10.0
 40
10.0
 40
10.0
 40
11.0
 40
11.0
 40
11.0
 40
12.0
 40
12.0
 40
12.0
 40
13.0
 40
13.0
 40
13.0
 40
14.0
 40
14.0
 40
14.0
 40
15.0
 40
15.0
 40
15.0
 40
16.0
 40
16.0
 40
16.0
 40
17.0
 40
17.0
 40
17.0
 40
18.0
 40
18.0
 40
18.0
 40
19.0
 40
19.0
 40
19.0
 40
20.0
 40
20.0
 40
20.0
 40
21.0
 40
21.0
 40
21.0
 40
21.0
 10
207.5762694262503
 20
272.1306834698244
 10
207.5762694262503
 20
272.0538577898218
 10
207.5902220721701
 20
271.8829809410269
 10
207.4122827729714
 20
271.8829809410269
 10
207.269311216016
 20
271.8829809410269
 10
207.2448510219344
 20
272.0014923039008
 10
207.2448510219344
 20
272.1165585690167
 10
207.2448510219344
 20
272.1165585690167
 10
207.2448510219344
 20
272.1723691526957
 10
207.2448510219344
 20
272.1723691526957
 10
207.2448510219344
 20
272.1723691526957
 10
206.9728605539433
 20
271.9946021083849
 10
206.9728605539433
 20
271.9946021083849
 10
206.8646844843433
 20
271.9246666238982
 10
206.7739061584211
 20
271.8829809410269
 10
206.6833000873867
 20
271.8829809410269
 10
206.6833000873867
 20
271.8829809410269
 10
206.4355975585892
 20
271.8829809410269
 10
206.4355975585892
 20
271.8829809410269
 10
206.341374134909
 20
271.8829809410269
 10
206.2368154179548
 20
271.9108862328664
 10
206.1251942505969
 20
272.0049374016588
 10
205.9751602432376
 20
272.1341285675823
 10
205.9786053409956
 20
272.2771001245377
 10
205.9717151454797
 20
272.4586567763823
 10
205.9717151454797
 20
272.4586567763823
 10
205.9367474032364
 20
273.5118231609912
 10
205.9367474032364
 20
273.5118231609912
 10
205.9333023054784
 20
273.6341241313988
 10
205.9507000491561
 20
273.7629707875466
 10
206.1041791542733
 20
273.7629707875466
 10
206.2473229661166
 20
273.7629707875466
 10
206.2647207097943
 20
273.6410143269147
 10
206.2681658075523
 20
273.5328382573148
 10
206.2681658075523
 20
273.5328382573148
 10
206.3031335497956
 20
272.5037875570116
 10
206.3031335497956
 20
272.5037875570116
 10
206.3065786475536
 20
272.426961877009
 10
206.3100237453115
 20
272.3363558059747
 10
206.337929037151
 20
272.2877799275874
 10
206.3658343289905
 20
272.2388595394244
 10
206.4529953022669
 20
272.2178444431008
 10
206.5332660800274
 20
272.2178444431008
 10
206.5332660800274
 20
272.2178444431008
 10
206.6448872473854
 20
272.2178444431008
 10
206.6448872473854
 20
272.2178444431008
 10
206.6833000873867
 20
272.2178444431008
 10
206.7180955747421
 20
272.2281797363747
 10
206.7496182192274
 20
272.2491948326982
 10
206.7496182192274
 20
272.2491948326982
 10
207.2414059241765
 20
272.5595981406906
 10
207.2414059241765
 20
272.5595981406906
 10
207.2414059241765
 20
272.5595981406906
 10
207.2414059241765
 20
273.5328382573148
 10
207.2414059241765
 20
273.5328382573148
 10
207.2414059241765
 20
273.6479045224307
 10
207.2656938633701
 20
273.7629707875466
 10
207.4088376752134
 20
273.7629707875466
 10
207.5518092321688
 20
273.7629707875466
 10
207.5762694262503
 20
273.6479045224307
 10
207.5762694262503
 20
273.5328382573148
 10
207.5762694262503
 20
273.5328382573148
 10
207.5762694262503
 20
272.1306834698244
 10
207.5762694262503
 20
272.1306834698244
 97
        0
 75
     2
 76
     1
 98
        0
  0
SPLINE
  5
89
330
73
100
AcDbEntity
  8
Calque 1
370
     0
100
AcDbSpline
210
0.0
220
0.0
230
1.0
 70
    11
 71
     3
 72
    71
 73
    67
 74
     0
 42
0.0000000001
 43
0.0000000001
 40
0.0
 40
0.0
 40
0.0
 40
0.0
 40
1.0
 40
1.0
 40
1.0
 40
2.0
 40
2.0
 40
2.0
 40
3.0
 40
3.0
 40
3.0
 40
4.0
 40
4.0
 40
4.0
 40
5.0
 40
5.0
 40
5.0
 40
6.0
 40
6.0
 40
6.0
 40
7.0
 40
7.0
 40
7.0
 40
8.0
 40
8.0
 40
8.0
 40
9.0
 40
9.0
 40
9.0
 40
10.0
 40
10.0
 40
10.0
 40
11.0
 40
11.0
 40
11.0
 40
12.0
 40
12.0
 40
12.0
 40
13.0
 40
13.0
 40
13.0
 40
14.0
 40
14.0
 40
14.0
 40
15.0
 40
15.0
 40
15.0
 40
16.0
 40
16.0
 40
16.0
 40
17.0
 40
17.0
 40
17.0
 40
18.0
 40
18.0
 40
18.0
 40
19.0
 40
19.0
 40
19.0
 40
20.0
 40
20.0
 40
20.0
 40
21.0
 40
21.0
 40
21.0
 40
22.0
 40
22.0
 40
22.0
 40
22.0
 10
209.060762050156
 20
271.8829809410269
 30
0.0
 10
208.9212355909586
 20
271.8829809410269
 30
0.0
 10
208.8654250072796
 20
271.8829809410269
 30
0.0
 10
208.7608662903255
 20
271.9735870120613
 30
0.0
 10
208.7608662903255
 20
271.9735870120613
 30
0.0
 10
208.61789473337
 20
272.0993330802269
 30
0.0
 10
208.61789473337
 20
272.0993330802269
 30
0.0
 10
208.4852584696885
 20
272.2178444431008
 30
0.0
 10
208.4468456296873
 20
272.2946701231033
 30
0.0
 10
208.4468456296873
 20
272.4758822651721
 30
0.0
 10
208.4468456296873
 20
272.4758822651721
 30
0.0
 10
208.4468456296873
 20
273.1211490752383
 30
0.0
 10
208.4468456296873
 20
273.1211490752383
 30
0.0
 10
208.4468456296873
 20
273.299260629325
 30
0.0
 10
208.4713058237688
 20
273.403991601167
 30
0.0
 10
208.6108322829662
 20
273.5225029640409
 30
0.0
 10
208.6108322829662
 20
273.5225029640409
 30
0.0
 10
208.729515900728
 20
273.6234443283491
 30
0.0
 10
208.729515900728
 20
273.6234443283491
 30
0.0
 10
208.8864401036031
 20
273.7595256897886
 30
0.0
 10
208.9630935287178
 20
273.7629707875466
 30
0.0
 10
209.0991748901573
 20
273.7629707875466
 30
0.0
 10
209.0991748901573
 20
273.7629707875466
 30
0.0
 10
209.4061331003917
 20
273.7629707875466
 30
0.0
 10
209.4061331003917
 20
273.7629707875466
 30
0.0
 10
209.5701197536707
 20
273.7629707875466
 30
0.0
 10
209.6467731787853
 20
273.7457452987568
 30
0.0
 10
209.775792089821
 20
273.6410143269147
 30
0.0
 10
209.775792089821
 20
273.6410143269147
 30
0.0
 10
209.9118734512604
 20
273.5328382573148
 30
0.0
 10
209.9118734512604
 20
273.5328382573148
 30
0.0
 10
210.0653525563777
 20
273.4108817966829
 30
0.0
 10
210.0863676527012
 20
273.2816906307593
 30
0.0
 10
210.0863676527012
 20
273.0966888811568
 30
0.0
 10
210.0863676527012
 20
273.0966888811568
 30
0.0
 10
210.0863676527012
 20
272.8283157658116
 30
0.0
 10
210.0863676527012
 20
272.8283157658116
 30
0.0
 10
210.0863676527012
 20
272.6364238206931
 30
0.0
 10
210.0548450082159
 20
272.5806132370141
 30
0.0
 10
209.8560628675815
 20
272.5806132370141
 30
0.0
 10
209.8560628675815
 20
272.5806132370141
 30
0.0
 10
208.7817091317611
 20
272.5806132370141
 30
0.0
 10
208.7817091317611
 20
272.5806132370141
 30
0.0
 10
208.7817091317611
 20
272.5806132370141
 30
0.0
 10
208.7817091317611
 20
272.4689920696562
 30
0.0
 10
208.7817091317611
 20
272.4689920696562
 30
0.0
 10
208.7817091317611
 20
272.4376416800587
 30
0.0
 10
208.8061693258427
 20
272.3956114874116
 30
0.0
 10
208.8306295199242
 20
272.3711512933301
 30
0.0
 10
208.8306295199242
 20
272.3711512933301
 30
0.0
 10
208.9143453954426
 20
272.2805452222957
 30
0.0
 10
208.9143453954426
 20
272.2805452222957
 30
0.0
 10
208.9596484309598
 20
272.2319693439084
 30
0.0
 10
209.0259665628006
 20
272.2178444431008
 30
0.0
 10
209.1375877301586
 20
272.2178444431008
 30
0.0
 10
209.1375877301586
 20
272.2178444431008
 30
0.0
 10
209.8560628675815
 20
272.2178444431008
 30
0.0
 10
209.8560628675815
 20
272.2178444431008
 30
0.0
 10
209.9676840349394
 20
272.2178444431008
 30
0.0
 10
210.0863676527012
 20
272.1933842490192
 30
0.0
 10
210.0863676527012
 20
272.0504126920638
 30
0.0
 10
210.0863676527012
 20
271.9039960373505
 30
0.0
 10
209.9537313890197
 20
271.8829809410269
 30
0.0
 10
209.8560628675815
 20
271.8829809410269
 30
0.0
 10
209.8560628675815
 20
271.8829809410269
 30
0.0
 10
209.060762050156
 20
271.8829809410269
 30
0.0
 10
209.060762050156
 20
271.8829809410269
 30
0.0
  0
SPLINE
  5
8A
330
73
100
AcDbEntity
  8
Calque 1
370
     0
100
AcDbSpline
210
0.0
220
0.0
230
1.0
 70
    11
 71
     3
 72
    35
 73
    31
 74
     0
 42
0.0000000001
 43
0.0000000001
 40
0.0
 40
0.0
 40
0.0
 40
0.0
 40
1.0
 40
1.0
 40
1.0
 40
2.0
 40
2.0
 40
2.0
 40
3.0
 40
3.0
 40
3.0
 40
4.0
 40
4.0
 40
4.0
 40
5.0
 40
5.0
 40
5.0
 40
6.0
 40
6.0
 40
6.0
 40
7.0
 40
7.0
 40
7.0
 40
8.0
 40
8.0
 40
8.0
 40
9.0
 40
9.0
 40
9.0
 40
10.0
 40
10.0
 40
10.0
 40
10.0
 10
208.7817091317611
 20
272.915476739088
 30
0.0
 10
208.7817091317611
 20
272.915476739088
 30
0.0
 10
209.7515041506273
 20
272.915476739088
 30
0.0
 10
209.7515041506273
 20
272.915476739088
 30
0.0
 10
209.7515041506273
 20
272.915476739088
 30
0.0
 10
209.7515041506273
 20
273.1177039774803
 30
0.0
 10
209.7515041506273
 20
273.1177039774803
 30
0.0
 10
209.7515041506273
 20
273.1807492664511
 30
0.0
 10
209.7549492483853
 20
273.2327702425963
 30
0.0
 10
209.7096462128681
 20
273.2748004352434
 30
0.0
 10
209.7096462128681
 20
273.2748004352434
 30
0.0
 10
209.5804550469445
 20
273.3864216026014
 30
0.0
 10
209.5804550469445
 20
273.3864216026014
 30
0.0
 10
209.5387693640732
 20
273.4246621877148
 30
0.0
 10
209.4724512322324
 20
273.4281072854727
 30
0.0
 10
209.4200857463114
 20
273.4281072854727
 30
0.0
 10
209.4200857463114
 20
273.4281072854727
 30
0.0
 10
209.1375877301586
 20
273.4281072854727
 30
0.0
 10
209.1375877301586
 20
273.4281072854727
 30
0.0
 10
209.0747146960758
 20
273.4281072854727
 30
0.0
 10
209.0223492101547
 20
273.4281072854727
 30
0.0
 10
208.9665386264758
 20
273.3898667003593
 30
0.0
 10
208.9665386264758
 20
273.3898667003593
 30
0.0
 10
208.8514723613598
 20
273.3061508248409
 30
0.0
 10
208.8514723613598
 20
273.3061508248409
 30
0.0
 10
208.8096144236006
 20
273.2748004352434
 30
0.0
 10
208.7817091317611
 20
273.2503402411619
 30
0.0
 10
208.7817091317611
 20
273.1524994648358
 30
0.0
 10
208.7817091317611
 20
273.1524994648358
 30
0.0
 10
208.7817091317611
 20
272.915476739088
 30
0.0
 10
208.7817091317611
 20
272.915476739088
 30
0.0
  0
SPLINE
  5
8B
330
73
100
AcDbEntity
  8
Calque 1
370
     0
100
AcDbSpline
210
0.0
220
0.0
230
1.0
 70
    11
 71
     3
 72
    29
 73
    25
 74
     0
 42
0.0000000001
 43
0.0000000001
 40
0.0
 40
0.0
 40
0.0
 40
0.0
 40
1.0
 40
1.0
 40
1.0
 40
2.0
 40
2.0
 40
2.0
 40
3.0
 40
3.0
 40
3.0
 40
4.0
 40
4.0
 40
4.0
 40
5.0
 40
5.0
 40
5.0
 40
6.0
 40
6.0
 40
6.0
 40
7.0
 40
7.0
 40
7.0
 40
8.0
 40
8.0
 40
8.0
 40
8.0
 10
209.6433280810273
 20
274.5794589561835
 30
0.0
 10
209.6607258247051
 20
274.5897942494574
 30
0.0
 10
209.6886311165445
 20
274.5966844449733
 30
0.0
 10
209.7130913106261
 20
274.5966844449733
 30
0.0
 10
209.8142049298222
 20
274.5966844449733
 30
0.0
 10
209.9049832557445
 20
274.4747279843415
 30
0.0
 10
209.8979208053407
 20
274.3734421102574
 30
0.0
 10
209.8944757075828
 20
274.3283113296281
 30
0.0
 10
209.8736328661471
 20
274.286281136981
 30
0.0
 10
209.824712477984
 20
274.2618209428994
 30
0.0
 10
209.824712477984
 20
274.2618209428994
 30
0.0
 10
209.1584305715942
 20
273.9338476363415
 30
0.0
 10
209.1584305715942
 20
273.9338476363415
 30
0.0
 10
209.1375877301586
 20
273.9235123430676
 30
0.0
 10
209.116572633835
 20
273.9166221475517
 30
0.0
 10
209.0957297923993
 20
273.9166221475517
 30
0.0
 10
209.0085688191229
 20
273.9166221475517
 30
0.0
 10
208.9422506872821
 20
274.010673316344
 30
0.0
 10
208.9422506872821
 20
274.0943891918625
 30
0.0
 10
208.9422506872821
 20
274.1398644822676
 30
0.0
 10
208.9596484309598
 20
274.1853397726727
 30
0.0
 10
209.0085688191229
 20
274.2129005547364
 30
0.0
 10
209.0085688191229
 20
274.2129005547364
 30
0.0
 10
209.6433280810273
 20
274.5794589561835
 30
0.0
 10
209.6433280810273
 20
274.5794589561835
 30
0.0
  0
HATCH
  5
8C
330
73
100
AcDbEntity
  8
Calque 1
 62
   179
420
  1842203
100
AcDbHatch
 10
0.0
 20
0.0
 30
0.0
210
0.0
220
0.0
230
1.0
  2
SOLID
 70
     1
 71
     0
 91
        3
 92
        1
 93
        1
 72
     4
 94
        3
 73
     0
 74
     1
 95
       71
 96
       67
 40
0.0
 40
0.0
 40
0.0
 40
0.0
 40
1.0
 40
1.0
 40
1.0
 40
2.0
 40
2.0
 40
2.0
 40
3.0
 40
3.0
 40
3.0
 40
4.0
 40
4.0
 40
4.0
 40
5.0
 40
5.0
 40
5.0
 40
6.0
 40
6.0
 40
6.0
 40
7.0
 40
7.0
 40
7.0
 40
8.0
 40
8.0
 40
8.0
 40
9.0
 40
9.0
 40
9.0
 40
10.0
 40
10.0
 40
10.0
 40
11.0
 40
11.0
 40
11.0
 40
12.0
 40
12.0
 40
12.0
 40
13.0
 40
13.0
 40
13.0
 40
14.0
 40
14.0
 40
14.0
 40
15.0
 40
15.0
 40
15.0
 40
16.0
 40
16.0
 40
16.0
 40
17.0
 40
17.0
 40
17.0
 40
18.0
 40
18.0
 40
18.0
 40
19.0
 40
19.0
 40
19.0
 40
20.0
 40
20.0
 40
20.0
 40
21.0
 40
21.0
 40
21.0
 40
22.0
 40
22.0
 40
22.0
 40
22.0
 10
209.060762050156
 20
271.8829809410269
 10
208.9212355909586
 20
271.8829809410269
 10
208.8654250072796
 20
271.8829809410269
 10
208.7608662903255
 20
271.9735870120613
 10
208.7608662903255
 20
271.9735870120613
 10
208.61789473337
 20
272.0993330802269
 10
208.61789473337
 20
272.0993330802269
 10
208.4852584696885
 20
272.2178444431008
 10
208.4468456296873
 20
272.2946701231033
 10
208.4468456296873
 20
272.4758822651721
 10
208.4468456296873
 20
272.4758822651721
 10
208.4468456296873
 20
273.1211490752383
 10
208.4468456296873
 20
273.1211490752383
 10
208.4468456296873
 20
273.299260629325
 10
208.4713058237688
 20
273.403991601167
 10
208.6108322829662
 20
273.5225029640409
 10
208.6108322829662
 20
273.5225029640409
 10
208.729515900728
 20
273.6234443283491
 10
208.729515900728
 20
273.6234443283491
 10
208.8864401036031
 20
273.7595256897886
 10
208.9630935287178
 20
273.7629707875466
 10
209.0991748901573
 20
273.7629707875466
 10
209.0991748901573
 20
273.7629707875466
 10
209.4061331003917
 20
273.7629707875466
 10
209.4061331003917
 20
273.7629707875466
 10
209.5701197536707
 20
273.7629707875466
 10
209.6467731787853
 20
273.7457452987568
 10
209.775792089821
 20
273.6410143269147
 10
209.775792089821
 20
273.6410143269147
 10
209.9118734512604
 20
273.5328382573148
 10
209.9118734512604
 20
273.5328382573148
 10
210.0653525563777
 20
273.4108817966829
 10
210.0863676527012
 20
273.2816906307593
 10
210.0863676527012
 20
273.0966888811568
 10
210.0863676527012
 20
273.0966888811568
 10
210.0863676527012
 20
272.8283157658116
 10
210.0863676527012
 20
272.8283157658116
 10
210.0863676527012
 20
272.6364238206931
 10
210.0548450082159
 20
272.5806132370141
 10
209.8560628675815
 20
272.5806132370141
 10
209.8560628675815
 20
272.5806132370141
 10
208.7817091317611
 20
272.5806132370141
 10
208.7817091317611
 20
272.5806132370141
 10
208.7817091317611
 20
272.5806132370141
 10
208.7817091317611
 20
272.4689920696562
 10
208.7817091317611
 20
272.4689920696562
 10
208.7817091317611
 20
272.4376416800587
 10
208.8061693258427
 20
272.3956114874116
 10
208.8306295199242
 20
272.3711512933301
 10
208.8306295199242
 20
272.3711512933301
 10
208.9143453954426
 20
272.2805452222957
 10
208.9143453954426
 20
272.2805452222957
 10
208.9596484309598
 20
272.2319693439084
 10
209.0259665628006
 20
272.2178444431008
 10
209.1375877301586
 20
272.2178444431008
 10
209.1375877301586
 20
272.2178444431008
 10
209.8560628675815
 20
272.2178444431008
 10
209.8560628675815
 20
272.2178444431008
 10
209.9676840349394
 20
272.2178444431008
 10
210.0863676527012
 20
272.1933842490192
 10
210.0863676527012
 20
272.0504126920638
 10
210.0863676527012
 20
271.9039960373505
 10
209.9537313890197
 20
271.8829809410269
 10
209.8560628675815
 20
271.8829809410269
 10
209.8560628675815
 20
271.8829809410269
 10
209.060762050156
 20
271.8829809410269
 10
209.060762050156
 20
271.8829809410269
 97
        0
 92
        1
 93
        1
 72
     4
 94
        3
 73
     0
 74
     1
 95
       35
 96
       31
 40
0.0
 40
0.0
 40
0.0
 40
0.0
 40
1.0
 40
1.0
 40
1.0
 40
2.0
 40
2.0
 40
2.0
 40
3.0
 40
3.0
 40
3.0
 40
4.0
 40
4.0
 40
4.0
 40
5.0
 40
5.0
 40
5.0
 40
6.0
 40
6.0
 40
6.0
 40
7.0
 40
7.0
 40
7.0
 40
8.0
 40
8.0
 40
8.0
 40
9.0
 40
9.0
 40
9.0
 40
10.0
 40
10.0
 40
10.0
 40
10.0
 10
208.7817091317611
 20
272.915476739088
 10
208.7817091317611
 20
272.915476739088
 10
209.7515041506273
 20
272.915476739088
 10
209.7515041506273
 20
272.915476739088
 10
209.7515041506273
 20
272.915476739088
 10
209.7515041506273
 20
273.1177039774803
 10
209.7515041506273
 20
273.1177039774803
 10
209.7515041506273
 20
273.1807492664511
 10
209.7549492483853
 20
273.2327702425963
 10
209.7096462128681
 20
273.2748004352434
 10
209.7096462128681
 20
273.2748004352434
 10
209.5804550469445
 20
273.3864216026014
 10
209.5804550469445
 20
273.3864216026014
 10
209.5387693640732
 20
273.4246621877148
 10
209.4724512322324
 20
273.4281072854727
 10
209.4200857463114
 20
273.4281072854727
 10
209.4200857463114
 20
273.4281072854727
 10
209.1375877301586
 20
273.4281072854727
 10
209.1375877301586
 20
273.4281072854727
 10
209.0747146960758
 20
273.4281072854727
 10
209.0223492101547
 20
273.4281072854727
 10
208.9665386264758
 20
273.3898667003593
 10
208.9665386264758
 20
273.3898667003593
 10
208.8514723613598
 20
273.3061508248409
 10
208.8514723613598
 20
273.3061508248409
 10
208.8096144236006
 20
273.2748004352434
 10
208.7817091317611
 20
273.2503402411619
 10
208.7817091317611
 20
273.1524994648358
 10
208.7817091317611
 20
273.1524994648358
 10
208.7817091317611
 20
272.915476739088
 10
208.7817091317611
 20
272.915476739088
 97
        0
 92
        1
 93
        1
 72
     4
 94
        3
 73
     0
 74
     1
 95
       29
 96
       25
 40
0.0
 40
0.0
 40
0.0
 40
0.0
 40
1.0
 40
1.0
 40
1.0
 40
2.0
 40
2.0
 40
2.0
 40
3.0
 40
3.0
 40
3.0
 40
4.0
 40
4.0
 40
4.0
 40
5.0
 40
5.0
 40
5.0
 40
6.0
 40
6.0
 40
6.0
 40
7.0
 40
7.0
 40
7.0
 40
8.0
 40
8.0
 40
8.0
 40
8.0
 10
209.6433280810273
 20
274.5794589561835
 10
209.6607258247051
 20
274.5897942494574
 10
209.6886311165445
 20
274.5966844449733
 10
209.7130913106261
 20
274.5966844449733
 10
209.8142049298222
 20
274.5966844449733
 10
209.9049832557445
 20
274.4747279843415
 10
209.8979208053407
 20
274.3734421102574
 10
209.8944757075828
 20
274.3283113296281
 10
209.8736328661471
 20
274.286281136981
 10
209.824712477984
 20
274.2618209428994
 10
209.824712477984
 20
274.2618209428994
 10
209.1584305715942
 20
273.9338476363415
 10
209.1584305715942
 20
273.9338476363415
 10
209.1375877301586
 20
273.9235123430676
 10
209.116572633835
 20
273.9166221475517
 10
209.0957297923993
 20
273.9166221475517
 10
209.0085688191229
 20
273.9166221475517
 10
208.9422506872821
 20
274.010673316344
 10
208.9422506872821
 20
274.0943891918625
 10
208.9422506872821
 20
274.1398644822676
 10
208.9596484309598
 20
274.1853397726727
 10
209.0085688191229
 20
274.2129005547364
 10
209.0085688191229
 20
274.2129005547364
 10
209.6433280810273
 20
274.5794589561835
 10
209.6433280810273
 20
274.5794589561835
 97
        0
 75
     2
 76
     1
 98
        0
  0
SPLINE
  5
8D
330
73
100
AcDbEntity
  8
Calque 1
370
     0
100
AcDbSpline
210
0.0
220
0.0
230
1.0
 70
    11
 71
     3
 72
    65
 73
    61
 74
     0
 42
0.0000000001
 43
0.0000000001
 40
0.0
 40
0.0
 40
0.0
 40
0.0
 40
1.0
 40
1.0
 40
1.0
 40
2.0
 40
2.0
 40
2.0
 40
3.0
 40
3.0
 40
3.0
 40
4.0
 40
4.0
 40
4.0
 40
5.0
 40
5.0
 40
5.0
 40
6.0
 40
6.0
 40
6.0
 40
7.0
 40
7.0
 40
7.0
 40
8.0
 40
8.0
 40
8.0
 40
9.0
 40
9.0
 40
9.0
 40
10.0
 40
10.0
 40
10.0
 40
11.0
 40
11.0
 40
11.0
 40
12.0
 40
12.0
 40
12.0
 40
13.0
 40
13.0
 40
13.0
 40
14.0
 40
14.0
 40
14.0
 40
15.0
 40
15.0
 40
15.0
 40
16.0
 40
16.0
 40
16.0
 40
17.0
 40
17.0
 40
17.0
 40
18.0
 40
18.0
 40
18.0
 40
19.0
 40
19.0
 40
19.0
 40
20.0
 40
20.0
 40
20.0
 40
20.0
 10
214.0284207622489
 20
273.4281072854727
 30
0.0
 10
213.9309244956985
 20
273.4281072854727
 30
0.0
 10
213.798288232017
 20
273.4491223817963
 30
0.0
 10
213.798288232017
 20
273.5955390365096
 30
0.0
 10
213.798288232017
 20
273.7388551032408
 30
0.0
 10
213.9167995948909
 20
273.7629707875466
 30
0.0
 10
214.0284207622489
 20
273.7629707875466
 30
0.0
 10
214.0284207622489
 20
273.7629707875466
 30
0.0
 10
214.4890303324884
 20
273.7629707875466
 30
0.0
 10
214.4890303324884
 20
273.7629707875466
 30
0.0
 10
214.6633522790412
 20
273.7629707875466
 30
0.0
 10
214.7889260923189
 20
273.7457452987568
 30
0.0
 10
214.9213901011125
 20
273.6131090350752
 30
0.0
 10
215.0505812670361
 20
273.4839178691517
 30
0.0
 10
215.0679790107138
 20
273.3829765048434
 30
0.0
 10
215.0714241084718
 20
273.2155447538065
 30
0.0
 10
215.0714241084718
 20
273.2155447538065
 30
0.0
 10
215.1063918507151
 20
272.0783179839033
 30
0.0
 10
215.1063918507151
 20
272.0783179839033
 30
0.0
 10
215.1098369484731
 20
271.9804772075772
 30
0.0
 10
215.06091656031
 20
271.8829809410269
 30
0.0
 10
214.949295392952
 20
271.8829809410269
 30
0.0
 10
214.8621344196756
 20
271.8829809410269
 30
0.0
 10
214.7749734463992
 20
271.9563615232715
 30
0.0
 10
214.7784185441571
 20
272.0504126920638
 30
0.0
 10
214.7784185441571
 20
272.0504126920638
 30
0.0
 10
214.5482860139253
 20
271.9319013291899
 30
0.0
 10
214.5482860139253
 20
271.9319013291899
 30
0.0
 10
214.454062590245
 20
271.8829809410269
 30
0.0
 10
214.4506174924871
 20
271.8829809410269
 30
0.0
 10
214.3424414228871
 20
271.8829809410269
 30
0.0
 10
214.3424414228871
 20
271.8829809410269
 30
0.0
 10
214.021530566733
 20
271.8829809410269
 30
0.0
 10
214.021530566733
 20
271.8829809410269
 30
0.0
 10
213.8714965593737
 20
271.8829809410269
 30
0.0
 10
213.7634927446616
 20
271.9005509395925
 30
0.0
 10
213.6413640291419
 20
272.0014923039008
 30
0.0
 10
213.5018375699444
 20
272.1165585690167
 30
0.0
 10
213.4668698277011
 20
272.2388595394244
 30
0.0
 10
213.4668698277011
 20
272.4131814859772
 30
0.0
 10
213.4668698277011
 20
272.4131814859772
 30
0.0
 10
213.4668698277011
 20
272.5595981406906
 30
0.0
 10
213.4668698277011
 20
272.5595981406906
 30
0.0
 10
213.4668698277011
 20
272.7201396962116
 30
0.0
 10
213.5052826677024
 20
272.8214255702957
 30
0.0
 10
213.6308564809801
 20
272.9330467376536
 30
0.0
 10
213.745922746096
 20
273.0339881019619
 30
0.0
 10
213.8751139120196
 20
273.0584482960434
 30
0.0
 10
214.021530566733
 20
273.0584482960434
 30
0.0
 10
214.021530566733
 20
273.0584482960434
 30
0.0
 10
214.7401779590438
 20
273.0584482960434
 30
0.0
 10
214.7401779590438
 20
273.0584482960434
 30
0.0
 10
214.7401779590438
 20
273.0584482960434
 30
0.0
 10
214.7401779590438
 20
273.135273976046
 30
0.0
 10
214.7401779590438
 20
273.135273976046
 30
0.0
 10
214.7401779590438
 20
273.3864216026014
 30
0.0
 10
214.6843673753648
 20
273.4281072854727
 30
0.0
 10
214.4435550420833
 20
273.4281072854727
 30
0.0
 10
214.4435550420833
 20
273.4281072854727
 30
0.0
 10
214.0284207622489
 20
273.4281072854727
 30
0.0
 10
214.0284207622489
 20
273.4281072854727
 30
0.0
  0
SPLINE
  5
8E
330
73
100
AcDbEntity
  8
Calque 1
370
     0
100
AcDbSpline
210
0.0
220
0.0
230
1.0
 70
    11
 71
     3
 72
    29
 73
    25
 74
     0
 42
0.0000000001
 43
0.0000000001
 40
0.0
 40
0.0
 40
0.0
 40
0.0
 40
1.0
 40
1.0
 40
1.0
 40
2.0
 40
2.0
 40
2.0
 40
3.0
 40
3.0
 40
3.0
 40
4.0
 40
4.0
 40
4.0
 40
5.0
 40
5.0
 40
5.0
 40
6.0
 40
6.0
 40
6.0
 40
7.0
 40
7.0
 40
7.0
 40
8.0
 40
8.0
 40
8.0
 40
8.0
 10
214.0249756644909
 20
272.7235847939696
 30
0.0
 10
213.9343695934565
 20
272.7235847939696
 30
0.0
 10
213.801733329775
 20
272.699124599888
 30
0.0
 10
213.801733329775
 20
272.5771681392562
 30
0.0
 10
213.801733329775
 20
272.5771681392562
 30
0.0
 10
213.801733329775
 20
272.3539258045403
 30
0.0
 10
213.801733329775
 20
272.3539258045403
 30
0.0
 10
213.801733329775
 20
272.2423046371823
 30
0.0
 10
213.9378146912145
 20
272.2178444431008
 30
0.0
 10
214.018085468975
 20
272.2178444431008
 30
0.0
 10
214.018085468975
 20
272.2178444431008
 30
0.0
 10
214.3877444584043
 20
272.2178444431008
 30
0.0
 10
214.3877444584043
 20
272.2178444431008
 30
0.0
 10
214.3877444584043
 20
272.2178444431008
 30
0.0
 10
214.7575757027215
 20
272.4097363882192
 30
0.0
 10
214.7575757027215
 20
272.4097363882192
 30
0.0
 10
214.7575757027215
 20
272.4097363882192
 30
0.0
 10
214.7575757027215
 20
272.482772460688
 30
0.0
 10
214.7575757027215
 20
272.482772460688
 30
0.0
 10
214.7575757027215
 20
272.6677742102906
 30
0.0
 10
214.7052102168005
 20
272.7235847939696
 30
0.0
 10
214.5203807220858
 20
272.7235847939696
 30
0.0
 10
214.5203807220858
 20
272.7235847939696
 30
0.0
 10
214.0249756644909
 20
272.7235847939696
 30
0.0
 10
214.0249756644909
 20
272.7235847939696
 30
0.0
  0
HATCH
  5
8F
330
73
100
AcDbEntity
  8
Calque 1
 62
   179
420
  1842203
100
AcDbHatch
 10
0.0
 20
0.0
 30
0.0
210
0.0
220
0.0
230
1.0
  2
SOLID
 70
     1
 71
     0
 91
        2
 92
        1
 93
        1
 72
     4
 94
        3
 73
     0
 74
     1
 95
       65
 96
       61
 40
0.0
 40
0.0
 40
0.0
 40
0.0
 40
1.0
 40
1.0
 40
1.0
 40
2.0
 40
2.0
 40
2.0
 40
3.0
 40
3.0
 40
3.0
 40
4.0
 40
4.0
 40
4.0
 40
5.0
 40
5.0
 40
5.0
 40
6.0
 40
6.0
 40
6.0
 40
7.0
 40
7.0
 40
7.0
 40
8.0
 40
8.0
 40
8.0
 40
9.0
 40
9.0
 40
9.0
 40
10.0
 40
10.0
 40
10.0
 40
11.0
 40
11.0
 40
11.0
 40
12.0
 40
12.0
 40
12.0
 40
13.0
 40
13.0
 40
13.0
 40
14.0
 40
14.0
 40
14.0
 40
15.0
 40
15.0
 40
15.0
 40
16.0
 40
16.0
 40
16.0
 40
17.0
 40
17.0
 40
17.0
 40
18.0
 40
18.0
 40
18.0
 40
19.0
 40
19.0
 40
19.0
 40
20.0
 40
20.0
 40
20.0
 40
20.0
 10
214.0284207622489
 20
273.4281072854727
 10
213.9309244956985
 20
273.4281072854727
 10
213.798288232017
 20
273.4491223817963
 10
213.798288232017
 20
273.5955390365096
 10
213.798288232017
 20
273.7388551032408
 10
213.9167995948909
 20
273.7629707875466
 10
214.0284207622489
 20
273.7629707875466
 10
214.0284207622489
 20
273.7629707875466
 10
214.4890303324884
 20
273.7629707875466
 10
214.4890303324884
 20
273.7629707875466
 10
214.6633522790412
 20
273.7629707875466
 10
214.7889260923189
 20
273.7457452987568
 10
214.9213901011125
 20
273.6131090350752
 10
215.0505812670361
 20
273.4839178691517
 10
215.0679790107138
 20
273.3829765048434
 10
215.0714241084718
 20
273.2155447538065
 10
215.0714241084718
 20
273.2155447538065
 10
215.1063918507151
 20
272.0783179839033
 10
215.1063918507151
 20
272.0783179839033
 10
215.1098369484731
 20
271.9804772075772
 10
215.06091656031
 20
271.8829809410269
 10
214.949295392952
 20
271.8829809410269
 10
214.8621344196756
 20
271.8829809410269
 10
214.7749734463992
 20
271.9563615232715
 10
214.7784185441571
 20
272.0504126920638
 10
214.7784185441571
 20
272.0504126920638
 10
214.5482860139253
 20
271.9319013291899
 10
214.5482860139253
 20
271.9319013291899
 10
214.454062590245
 20
271.8829809410269
 10
214.4506174924871
 20
271.8829809410269
 10
214.3424414228871
 20
271.8829809410269
 10
214.3424414228871
 20
271.8829809410269
 10
214.021530566733
 20
271.8829809410269
 10
214.021530566733
 20
271.8829809410269
 10
213.8714965593737
 20
271.8829809410269
 10
213.7634927446616
 20
271.9005509395925
 10
213.6413640291419
 20
272.0014923039008
 10
213.5018375699444
 20
272.1165585690167
 10
213.4668698277011
 20
272.2388595394244
 10
213.4668698277011
 20
272.4131814859772
 10
213.4668698277011
 20
272.4131814859772
 10
213.4668698277011
 20
272.5595981406906
 10
213.4668698277011
 20
272.5595981406906
 10
213.4668698277011
 20
272.7201396962116
 10
213.5052826677024
 20
272.8214255702957
 10
213.6308564809801
 20
272.9330467376536
 10
213.745922746096
 20
273.0339881019619
 10
213.8751139120196
 20
273.0584482960434
 10
214.021530566733
 20
273.0584482960434
 10
214.021530566733
 20
273.0584482960434
 10
214.7401779590438
 20
273.0584482960434
 10
214.7401779590438
 20
273.0584482960434
 10
214.7401779590438
 20
273.0584482960434
 10
214.7401779590438
 20
273.135273976046
 10
214.7401779590438
 20
273.135273976046
 10
214.7401779590438
 20
273.3864216026014
 10
214.6843673753648
 20
273.4281072854727
 10
214.4435550420833
 20
273.4281072854727
 10
214.4435550420833
 20
273.4281072854727
 10
214.0284207622489
 20
273.4281072854727
 10
214.0284207622489
 20
273.4281072854727
 97
        0
 92
        1
 93
        1
 72
     4
 94
        3
 73
     0
 74
     1
 95
       29
 96
       25
 40
0.0
 40
0.0
 40
0.0
 40
0.0
 40
1.0
 40
1.0
 40
1.0
 40
2.0
 40
2.0
 40
2.0
 40
3.0
 40
3.0
 40
3.0
 40
4.0
 40
4.0
 40
4.0
 40
5.0
 40
5.0
 40
5.0
 40
6.0
 40
6.0
 40
6.0
 40
7.0
 40
7.0
 40
7.0
 40
8.0
 40
8.0
 40
8.0
 40
8.0
 10
214.0249756644909
 20
272.7235847939696
 10
213.9343695934565
 20
272.7235847939696
 10
213.801733329775
 20
272.699124599888
 10
213.801733329775
 20
272.5771681392562
 10
213.801733329775
 20
272.5771681392562
 10
213.801733329775
 20
272.3539258045403
 10
213.801733329775
 20
272.3539258045403
 10
213.801733329775
 20
272.2423046371823
 10
213.9378146912145
 20
272.2178444431008
 10
214.018085468975
 20
272.2178444431008
 10
214.018085468975
 20
272.2178444431008
 10
214.3877444584043
 20
272.2178444431008
 10
214.3877444584043
 20
272.2178444431008
 10
214.3877444584043
 20
272.2178444431008
 10
214.7575757027215
 20
272.4097363882192
 10
214.7575757027215
 20
272.4097363882192
 10
214.7575757027215
 20
272.4097363882192
 10
214.7575757027215
 20
272.482772460688
 10
214.7575757027215
 20
272.482772460688
 10
214.7575757027215
 20
272.6677742102906
 10
214.7052102168005
 20
272.7235847939696
 10
214.5203807220858
 20
272.7235847939696
 10
214.5203807220858
 20
272.7235847939696
 10
214.0249756644909
 20
272.7235847939696
 10
214.0249756644909
 20
272.7235847939696
 97
        0
 75
     2
 76
     1
 98
        0
  0
SPLINE
  5
90
330
73
100
AcDbEntity
  8
Calque 1
370
     0
100
AcDbSpline
210
0.0
220
0.0
230
1.0
 70
    11
 71
     3
 72
    68
 73
    64
 74
     0
 42
0.0000000001
 43
0.0000000001
 40
0.0
 40
0.0
 40
0.0
 40
0.0
 40
1.0
 40
1.0
 40
1.0
 40
2.0
 40
2.0
 40
2.0
 40
3.0
 40
3.0
 40
3.0
 40
4.0
 40
4.0
 40
4.0
 40
5.0
 40
5.0
 40
5.0
 40
6.0
 40
6.0
 40
6.0
 40
7.0
 40
7.0
 40
7.0
 40
8.0
 40
8.0
 40
8.0
 40
9.0
 40
9.0
 40
9.0
 40
10.0
 40
10.0
 40
10.0
 40
11.0
 40
11.0
 40
11.0
 40
12.0
 40
12.0
 40
12.0
 40
13.0
 40
13.0
 40
13.0
 40
14.0
 40
14.0
 40
14.0
 40
15.0
 40
15.0
 40
15.0
 40
16.0
 40
16.0
 40
16.0
 40
17.0
 40
17.0
 40
17.0
 40
18.0
 40
18.0
 40
18.0
 40
19.0
 40
19.0
 40
19.0
 40
20.0
 40
20.0
 40
20.0
 40
21.0
 40
21.0
 40
21.0
 40
21.0
 10
217.616490077166
 20
272.1306834698244
 30
0.0
 10
217.616490077166
 20
272.0538577898218
 30
0.0
 10
217.6304427230857
 20
271.8829809410269
 30
0.0
 10
217.452503423887
 20
271.8829809410269
 30
0.0
 10
217.3095318669316
 20
271.8829809410269
 30
0.0
 10
217.2850716728501
 20
272.0014923039008
 30
0.0
 10
217.2850716728501
 20
272.1165585690167
 30
0.0
 10
217.2850716728501
 20
272.1165585690167
 30
0.0
 10
217.2850716728501
 20
272.1723691526957
 30
0.0
 10
217.2850716728501
 20
272.1723691526957
 30
0.0
 10
217.2850716728501
 20
272.1723691526957
 30
0.0
 10
217.0129089499711
 20
271.9946021083849
 30
0.0
 10
217.0129089499711
 20
271.9946021083849
 30
0.0
 10
216.904905135259
 20
271.9246666238982
 30
0.0
 10
216.8141268093367
 20
271.8829809410269
 30
0.0
 10
216.7235207383023
 20
271.8829809410269
 30
0.0
 10
216.7235207383023
 20
271.8829809410269
 30
0.0
 10
216.4758182095049
 20
271.8829809410269
 30
0.0
 10
216.4758182095049
 20
271.8829809410269
 30
0.0
 10
216.3815947858246
 20
271.8829809410269
 30
0.0
 10
216.2770360688705
 20
271.9108862328664
 30
0.0
 10
216.1654149015125
 20
272.0049374016588
 30
0.0
 10
216.0153808941533
 20
272.1341285675823
 30
0.0
 10
216.0188259919112
 20
272.2771001245377
 30
0.0
 10
216.0119357963953
 20
272.4586567763823
 30
0.0
 10
216.0119357963953
 20
272.4586567763823
 30
0.0
 10
215.976968054152
 20
273.5118231609912
 30
0.0
 10
215.976968054152
 20
273.5118231609912
 30
0.0
 10
215.973522956394
 20
273.6341241313988
 30
0.0
 10
215.9909207000717
 20
273.7629707875466
 30
0.0
 10
216.144399805189
 20
273.7629707875466
 30
0.0
 10
216.2873713621444
 20
273.7629707875466
 30
0.0
 10
216.30494136071
 20
273.6410143269147
 30
0.0
 10
216.3083864584679
 20
273.5328382573148
 30
0.0
 10
216.3083864584679
 20
273.5328382573148
 30
0.0
 10
216.3431819458233
 20
272.5037875570116
 30
0.0
 10
216.3431819458233
 20
272.5037875570116
 30
0.0
 10
216.3467992984692
 20
272.426961877009
 30
0.0
 10
216.3502443962272
 20
272.3363558059747
 30
0.0
 10
216.3781496880667
 20
272.2877799275874
 30
0.0
 10
216.4060549799061
 20
272.2388595394244
 30
0.0
 10
216.4932159531826
 20
272.2178444431008
 30
0.0
 10
216.5734867309431
 20
272.2178444431008
 30
0.0
 10
216.5734867309431
 20
272.2178444431008
 30
0.0
 10
216.685107898301
 20
272.2178444431008
 30
0.0
 10
216.685107898301
 20
272.2178444431008
 30
0.0
 10
216.7235207383023
 20
272.2178444431008
 30
0.0
 10
216.7583162256577
 20
272.2281797363747
 30
0.0
 10
216.7896666152552
 20
272.2491948326982
 30
0.0
 10
216.7896666152552
 20
272.2491948326982
 30
0.0
 10
217.2816265750921
 20
272.5595981406906
 30
0.0
 10
217.2816265750921
 20
272.5595981406906
 30
0.0
 10
217.2816265750921
 20
272.5595981406906
 30
0.0
 10
217.2816265750921
 20
273.5328382573148
 30
0.0
 10
217.2816265750921
 20
273.5328382573148
 30
0.0
 10
217.2816265750921
 20
273.6479045224307
 30
0.0
 10
217.3060867691736
 20
273.7629707875466
 30
0.0
 10
217.449058326129
 20
273.7629707875466
 30
0.0
 10
217.5920298830845
 20
273.7629707875466
 30
0.0
 10
217.616490077166
 20
273.6479045224307
 30
0.0
 10
217.616490077166
 20
273.5328382573148
 30
0.0
 10
217.616490077166
 20
273.5328382573148
 30
0.0
 10
217.616490077166
 20
272.1306834698244
 30
0.0
 10
217.616490077166
 20
272.1306834698244
 30
0.0
  0
HATCH
  5
91
330
73
100
AcDbEntity
  8
Calque 1
 62
   179
420
  1842203
100
AcDbHatch
 10
0.0
 20
0.0
 30
0.0
210
0.0
220
0.0
230
1.0
  2
SOLID
 70
     1
 71
     0
 91
        1
 92
        1
 93
        1
 72
     4
 94
        3
 73
     0
 74
     1
 95
       68
 96
       64
 40
0.0
 40
0.0
 40
0.0
 40
0.0
 40
1.0
 40
1.0
 40
1.0
 40
2.0
 40
2.0
 40
2.0
 40
3.0
 40
3.0
 40
3.0
 40
4.0
 40
4.0
 40
4.0
 40
5.0
 40
5.0
 40
5.0
 40
6.0
 40
6.0
 40
6.0
 40
7.0
 40
7.0
 40
7.0
 40
8.0
 40
8.0
 40
8.0
 40
9.0
 40
9.0
 40
9.0
 40
10.0
 40
10.0
 40
10.0
 40
11.0
 40
11.0
 40
11.0
 40
12.0
 40
12.0
 40
12.0
 40
13.0
 40
13.0
 40
13.0
 40
14.0
 40
14.0
 40
14.0
 40
15.0
 40
15.0
 40
15.0
 40
16.0
 40
16.0
 40
16.0
 40
17.0
 40
17.0
 40
17.0
 40
18.0
 40
18.0
 40
18.0
 40
19.0
 40
19.0
 40
19.0
 40
20.0
 40
20.0
 40
20.0
 40
21.0
 40
21.0
 40
21.0
 40
21.0
 10
217.616490077166
 20
272.1306834698244
 10
217.616490077166
 20
272.0538577898218
 10
217.6304427230857
 20
271.8829809410269
 10
217.452503423887
 20
271.8829809410269
 10
217.3095318669316
 20
271.8829809410269
 10
217.2850716728501
 20
272.0014923039008
 10
217.2850716728501
 20
272.1165585690167
 10
217.2850716728501
 20
272.1165585690167
 10
217.2850716728501
 20
272.1723691526957
 10
217.2850716728501
 20
272.1723691526957
 10
217.2850716728501
 20
272.1723691526957
 10
217.0129089499711
 20
271.9946021083849
 10
217.0129089499711
 20
271.9946021083849
 10
216.904905135259
 20
271.9246666238982
 10
216.8141268093367
 20
271.8829809410269
 10
216.7235207383023
 20
271.8829809410269
 10
216.7235207383023
 20
271.8829809410269
 10
216.4758182095049
 20
271.8829809410269
 10
216.4758182095049
 20
271.8829809410269
 10
216.3815947858246
 20
271.8829809410269
 10
216.2770360688705
 20
271.9108862328664
 10
216.1654149015125
 20
272.0049374016588
 10
216.0153808941533
 20
272.1341285675823
 10
216.0188259919112
 20
272.2771001245377
 10
216.0119357963953
 20
272.4586567763823
 10
216.0119357963953
 20
272.4586567763823
 10
215.976968054152
 20
273.5118231609912
 10
215.976968054152
 20
273.5118231609912
 10
215.973522956394
 20
273.6341241313988
 10
215.9909207000717
 20
273.7629707875466
 10
216.144399805189
 20
273.7629707875466
 10
216.2873713621444
 20
273.7629707875466
 10
216.30494136071
 20
273.6410143269147
 10
216.3083864584679
 20
273.5328382573148
 10
216.3083864584679
 20
273.5328382573148
 10
216.3431819458233
 20
272.5037875570116
 10
216.3431819458233
 20
272.5037875570116
 10
216.3467992984692
 20
272.426961877009
 10
216.3502443962272
 20
272.3363558059747
 10
216.3781496880667
 20
272.2877799275874
 10
216.4060549799061
 20
272.2388595394244
 10
216.4932159531826
 20
272.2178444431008
 10
216.5734867309431
 20
272.2178444431008
 10
216.5734867309431
 20
272.2178444431008
 10
216.685107898301
 20
272.2178444431008
 10
216.685107898301
 20
272.2178444431008
 10
216.7235207383023
 20
272.2178444431008
 10
216.7583162256577
 20
272.2281797363747
 10
216.7896666152552
 20
272.2491948326982
 10
216.7896666152552
 20
272.2491948326982
 10
217.2816265750921
 20
272.5595981406906
 10
217.2816265750921
 20
272.5595981406906
 10
217.2816265750921
 20
272.5595981406906
 10
217.2816265750921
 20
273.5328382573148
 10
217.2816265750921
 20
273.5328382573148
 10
217.2816265750921
 20
273.6479045224307
 10
217.3060867691736
 20
273.7629707875466
 10
217.449058326129
 20
273.7629707875466
 10
217.5920298830845
 20
273.7629707875466
 10
217.616490077166
 20
273.6479045224307
 10
217.616490077166
 20
273.5328382573148
 10
217.616490077166
 20
273.5328382573148
 10
217.616490077166
 20
272.1306834698244
 10
217.616490077166
 20
272.1306834698244
 97
        0
 75
     2
 76
     1
 98
        0
  0
SPLINE
  5
92
330
73
100
AcDbEntity
  8
Calque 1
370
     0
100
AcDbSpline
210
0.0
220
0.0
230
1.0
 70
    11
 71
     3
 72
    29
 73
    25
 74
     0
 42
0.0000000001
 43
0.0000000001
 40
0.0
 40
0.0
 40
0.0
 40
0.0
 40
1.0
 40
1.0
 40
1.0
 40
2.0
 40
2.0
 40
2.0
 40
3.0
 40
3.0
 40
3.0
 40
4.0
 40
4.0
 40
4.0
 40
5.0
 40
5.0
 40
5.0
 40
6.0
 40
6.0
 40
6.0
 40
7.0
 40
7.0
 40
7.0
 40
8.0
 40
8.0
 40
8.0
 40
8.0
 10
222.5038780114983
 20
272.2319693439084
 30
0.0
 10
222.5946563374206
 20
272.2319693439084
 30
0.0
 10
222.6783722129391
 20
272.1830489557453
 30
0.0
 10
222.6783722129391
 20
272.0573028875797
 30
0.0
 10
222.6783722129391
 20
271.9319013291899
 30
0.0
 10
222.5946563374206
 20
271.8829809410269
 30
0.0
 10
222.5038780114983
 20
271.8829809410269
 30
0.0
 10
222.5038780114983
 20
271.8829809410269
 30
0.0
 10
220.9551343144066
 20
271.8829809410269
 30
0.0
 10
220.9551343144066
 20
271.8829809410269
 30
0.0
 10
220.9551343144066
 20
271.8829809410269
 30
0.0
 10
220.9551343144066
 20
274.4223624984205
 30
0.0
 10
220.9551343144066
 20
274.4223624984205
 30
0.0
 10
220.9551343144066
 20
274.5339836657784
 30
0.0
 10
221.0040547025697
 20
274.5966844449733
 30
0.0
 10
221.1296285158474
 20
274.5966844449733
 30
0.0
 10
221.2552023291251
 20
274.5966844449733
 30
0.0
 10
221.3039504624003
 20
274.5339836657784
 30
0.0
 10
221.3039504624003
 20
274.4223624984205
 30
0.0
 10
221.3039504624003
 20
274.4223624984205
 30
0.0
 10
221.3039504624003
 20
272.2319693439084
 30
0.0
 10
221.3039504624003
 20
272.2319693439084
 30
0.0
 10
221.3039504624003
 20
272.2319693439084
 30
0.0
 10
222.5038780114983
 20
272.2319693439084
 30
0.0
 10
222.5038780114983
 20
272.2319693439084
 30
0.0
  0
HATCH
  5
93
330
73
100
AcDbEntity
  8
Calque 1
 62
   179
420
  1842203
100
AcDbHatch
 10
0.0
 20
0.0
 30
0.0
210
0.0
220
0.0
230
1.0
  2
SOLID
 70
     1
 71
     0
 91
        1
 92
        1
 93
        1
 72
     4
 94
        3
 73
     0
 74
     1
 95
       29
 96
       25
 40
0.0
 40
0.0
 40
0.0
 40
0.0
 40
1.0
 40
1.0
 40
1.0
 40
2.0
 40
2.0
 40
2.0
 40
3.0
 40
3.0
 40
3.0
 40
4.0
 40
4.0
 40
4.0
 40
5.0
 40
5.0
 40
5.0
 40
6.0
 40
6.0
 40
6.0
 40
7.0
 40
7.0
 40
7.0
 40
8.0
 40
8.0
 40
8.0
 40
8.0
 10
222.5038780114983
 20
272.2319693439084
 10
222.5946563374206
 20
272.2319693439084
 10
222.6783722129391
 20
272.1830489557453
 10
222.6783722129391
 20
272.0573028875797
 10
222.6783722129391
 20
271.9319013291899
 10
222.5946563374206
 20
271.8829809410269
 10
222.5038780114983
 20
271.8829809410269
 10
222.5038780114983
 20
271.8829809410269
 10
220.9551343144066
 20
271.8829809410269
 10
220.9551343144066
 20
271.8829809410269
 10
220.9551343144066
 20
271.8829809410269
 10
220.9551343144066
 20
274.4223624984205
 10
220.9551343144066
 20
274.4223624984205
 10
220.9551343144066
 20
274.5339836657784
 10
221.0040547025697
 20
274.5966844449733
 10
221.1296285158474
 20
274.5966844449733
 10
221.2552023291251
 20
274.5966844449733
 10
221.3039504624003
 20
274.5339836657784
 10
221.3039504624003
 20
274.4223624984205
 10
221.3039504624003
 20
274.4223624984205
 10
221.3039504624003
 20
272.2319693439084
 10
221.3039504624003
 20
272.2319693439084
 10
221.3039504624003
 20
272.2319693439084
 10
222.5038780114983
 20
272.2319693439084
 10
222.5038780114983
 20
272.2319693439084
 97
        0
 75
     2
 76
     1
 98
        0
  0
SPLINE
  5
94
330
73
100
AcDbEntity
  8
Calque 1
370
     0
100
AcDbSpline
210
0.0
220
0.0
230
1.0
 70
    11
 71
     3
 72
    44
 73
    40
 74
     0
 42
0.0000000001
 43
0.0000000001
 40
0.0
 40
0.0
 40
0.0
 40
0.0
 40
1.0
 40
1.0
 40
1.0
 40
2.0
 40
2.0
 40
2.0
 40
3.0
 40
3.0
 40
3.0
 40
4.0
 40
4.0
 40
4.0
 40
5.0
 40
5.0
 40
5.0
 40
6.0
 40
6.0
 40
6.0
 40
7.0
 40
7.0
 40
7.0
 40
8.0
 40
8.0
 40
8.0
 40
9.0
 40
9.0
 40
9.0
 40
10.0
 40
10.0
 40
10.0
 40
11.0
 40
11.0
 40
11.0
 40
12.0
 40
12.0
 40
12.0
 40
13.0
 40
13.0
 40
13.0
 40
13.0
 10
223.4650602859696
 20
274.5966844449733
 30
0.0
 10
223.4650602859696
 20
274.5966844449733
 30
0.0
 10
225.0138039830613
 20
274.5966844449733
 30
0.0
 10
225.0138039830613
 20
274.5966844449733
 30
0.0
 10
225.1045823089836
 20
274.5966844449733
 30
0.0
 10
225.1882981845021
 20
274.5477640568103
 30
0.0
 10
225.1882981845021
 20
274.4223624984205
 30
0.0
 10
225.1882981845021
 20
274.2969609400307
 30
0.0
 10
225.1045823089836
 20
274.2480405518676
 30
0.0
 10
225.0138039830613
 20
274.2480405518676
 30
0.0
 10
225.0138039830613
 20
274.2480405518676
 30
0.0
 10
223.8138764339633
 20
274.2480405518676
 30
0.0
 10
223.8138764339633
 20
274.2480405518676
 30
0.0
 10
223.8138764339633
 20
274.2480405518676
 30
0.0
 10
223.8138764339633
 20
273.7106053016255
 30
0.0
 10
223.8138764339633
 20
273.7106053016255
 30
0.0
 10
223.8138764339633
 20
273.7106053016255
 30
0.0
 10
224.6720502854715
 20
273.7106053016255
 30
0.0
 10
224.6720502854715
 20
273.7106053016255
 30
0.0
 10
224.7626563565059
 20
273.7106053016255
 30
0.0
 10
224.8463722320244
 20
273.6620294232383
 30
0.0
 10
224.8463722320244
 20
273.5362833550727
 30
0.0
 10
224.8463722320244
 20
273.4108817966829
 30
0.0
 10
224.7626563565059
 20
273.3619614085198
 30
0.0
 10
224.6720502854715
 20
273.3619614085198
 30
0.0
 10
224.6720502854715
 20
273.3619614085198
 30
0.0
 10
223.8138764339633
 20
273.3619614085198
 30
0.0
 10
223.8138764339633
 20
273.3619614085198
 30
0.0
 10
223.8138764339633
 20
273.3619614085198
 30
0.0
 10
223.8138764339633
 20
272.0573028875797
 30
0.0
 10
223.8138764339633
 20
272.0573028875797
 30
0.0
 10
223.8138764339633
 20
271.9456817202218
 30
0.0
 10
223.7651283006881
 20
271.8829809410269
 30
0.0
 10
223.6395544874104
 20
271.8829809410269
 30
0.0
 10
223.5139806741327
 20
271.8829809410269
 30
0.0
 10
223.4650602859696
 20
271.9456817202218
 30
0.0
 10
223.4650602859696
 20
272.0573028875797
 30
0.0
 10
223.4650602859696
 20
272.0573028875797
 30
0.0
 10
223.4650602859696
 20
274.5966844449733
 30
0.0
 10
223.4650602859696
 20
274.5966844449733
 30
0.0
  0
HATCH
  5
95
330
73
100
AcDbEntity
  8
Calque 1
 62
   179
420
  1842203
100
AcDbHatch
 10
0.0
 20
0.0
 30
0.0
210
0.0
220
0.0
230
1.0
  2
SOLID
 70
     1
 71
     0
 91
        1
 92
        1
 93
        1
 72
     4
 94
        3
 73
     0
 74
     1
 95
       44
 96
       40
 40
0.0
 40
0.0
 40
0.0
 40
0.0
 40
1.0
 40
1.0
 40
1.0
 40
2.0
 40
2.0
 40
2.0
 40
3.0
 40
3.0
 40
3.0
 40
4.0
 40
4.0
 40
4.0
 40
5.0
 40
5.0
 40
5.0
 40
6.0
 40
6.0
 40
6.0
 40
7.0
 40
7.0
 40
7.0
 40
8.0
 40
8.0
 40
8.0
 40
9.0
 40
9.0
 40
9.0
 40
10.0
 40
10.0
 40
10.0
 40
11.0
 40
11.0
 40
11.0
 40
12.0
 40
12.0
 40
12.0
 40
13.0
 40
13.0
 40
13.0
 40
13.0
 10
223.4650602859696
 20
274.5966844449733
 10
223.4650602859696
 20
274.5966844449733
 10
225.0138039830613
 20
274.5966844449733
 10
225.0138039830613
 20
274.5966844449733
 10
225.1045823089836
 20
274.5966844449733
 10
225.1882981845021
 20
274.5477640568103
 10
225.1882981845021
 20
274.4223624984205
 10
225.1882981845021
 20
274.2969609400307
 10
225.1045823089836
 20
274.2480405518676
 10
225.0138039830613
 20
274.2480405518676
 10
225.0138039830613
 20
274.2480405518676
 10
223.8138764339633
 20
274.2480405518676
 10
223.8138764339633
 20
274.2480405518676
 10
223.8138764339633
 20
274.2480405518676
 10
223.8138764339633
 20
273.7106053016255
 10
223.8138764339633
 20
273.7106053016255
 10
223.8138764339633
 20
273.7106053016255
 10
224.6720502854715
 20
273.7106053016255
 10
224.6720502854715
 20
273.7106053016255
 10
224.7626563565059
 20
273.7106053016255
 10
224.8463722320244
 20
273.6620294232383
 10
224.8463722320244
 20
273.5362833550727
 10
224.8463722320244
 20
273.4108817966829
 10
224.7626563565059
 20
273.3619614085198
 10
224.6720502854715
 20
273.3619614085198
 10
224.6720502854715
 20
273.3619614085198
 10
223.8138764339633
 20
273.3619614085198
 10
223.8138764339633
 20
273.3619614085198
 10
223.8138764339633
 20
273.3619614085198
 10
223.8138764339633
 20
272.0573028875797
 10
223.8138764339633
 20
272.0573028875797
 10
223.8138764339633
 20
271.9456817202218
 10
223.7651283006881
 20
271.8829809410269
 10
223.6395544874104
 20
271.8829809410269
 10
223.5139806741327
 20
271.8829809410269
 10
223.4650602859696
 20
271.9456817202218
 10
223.4650602859696
 20
272.0573028875797
 10
223.4650602859696
 20
272.0573028875797
 10
223.4650602859696
 20
274.5966844449733
 10
223.4650602859696
 20
274.5966844449733
 97
        0
 75
     2
 76
     1
 98
        0
  0
SPLINE
  5
96
330
73
100
AcDbEntity
  8
Calque 1
370
     0
100
AcDbSpline
210
0.0
220
0.0
230
1.0
 70
    11
 71
     3
 72
    41
 73
    37
 74
     0
 42
0.0000000001
 43
0.0000000001
 40
0.0
 40
0.0
 40
0.0
 40
0.0
 40
1.0
 40
1.0
 40
1.0
 40
2.0
 40
2.0
 40
2.0
 40
3.0
 40
3.0
 40
3.0
 40
4.0
 40
4.0
 40
4.0
 40
5.0
 40
5.0
 40
5.0
 40
6.0
 40
6.0
 40
6.0
 40
7.0
 40
7.0
 40
7.0
 40
8.0
 40
8.0
 40
8.0
 40
9.0
 40
9.0
 40
9.0
 40
10.0
 40
10.0
 40
10.0
 40
11.0
 40
11.0
 40
11.0
 40
12.0
 40
12.0
 40
12.0
 40
12.0
 10
227.6076180850307
 20
273.6165541328332
 30
0.0
 10
227.6739362168714
 20
273.4804727713937
 30
0.0
 10
227.698396410953
 20
273.3795314070854
 30
0.0
 10
227.698396410953
 20
273.2293251448384
 30
0.0
 10
227.698396410953
 20
273.0618933938014
 30
0.0
 10
227.6530933754358
 20
272.9575069317352
 30
0.0
 10
227.5831578909491
 20
272.8141908650039
 30
0.0
 10
227.5831578909491
 20
272.8141908650039
 30
0.0
 10
227.2624192896829
 20
272.1723691526957
 30
0.0
 10
227.2624192896829
 20
272.1723691526957
 30
0.0
 10
227.1787034141644
 20
272.0049374016588
 30
0.0
 10
227.039176954967
 20
271.8829809410269
 30
0.0
 10
226.8367774616868
 20
271.8829809410269
 30
0.0
 10
226.6343779684065
 20
271.8829809410269
 30
0.0
 10
226.494851509209
 20
272.0049374016588
 30
0.0
 10
226.4111356336906
 20
272.1723691526957
 30
0.0
 10
226.4111356336906
 20
272.1723691526957
 30
0.0
 10
226.0903970324243
 20
272.8141908650039
 30
0.0
 10
226.0903970324243
 20
272.8141908650039
 30
0.0
 10
226.0204615479377
 20
272.9575069317352
 30
0.0
 10
225.9751585124205
 20
273.0618933938014
 30
0.0
 10
225.9751585124205
 20
273.2293251448384
 30
0.0
 10
225.9751585124205
 20
273.3795314070854
 30
0.0
 10
225.999618706502
 20
273.4804727713937
 30
0.0
 10
226.0659368383428
 20
273.6165541328332
 30
0.0
 10
226.0659368383428
 20
273.6165541328332
 30
0.0
 10
226.4147529863364
 20
274.3107413310625
 30
0.0
 10
226.4147529863364
 20
274.3107413310625
 30
0.0
 10
226.4984688618549
 20
274.4747279843415
 30
0.0
 10
226.6414404188103
 20
274.5966844449733
 30
0.0
 10
226.8367774616868
 20
274.5966844449733
 30
0.0
 10
227.0321145045632
 20
274.5966844449733
 30
0.0
 10
227.1750860615186
 20
274.4747279843415
 30
0.0
 10
227.258801937037
 20
274.3107413310625
 30
0.0
 10
227.258801937037
 20
274.3107413310625
 30
0.0
 10
227.6076180850307
 20
273.6165541328332
 30
0.0
 10
227.6076180850307
 20
273.6165541328332
 30
0.0
  0
SPLINE
  5
97
330
73
100
AcDbEntity
  8
Calque 1
370
     0
100
AcDbSpline
210
0.0
220
0.0
230
1.0
 70
    11
 71
     3
 72
    41
 73
    37
 74
     0
 42
0.0000000001
 43
0.0000000001
 40
0.0
 40
0.0
 40
0.0
 40
0.0
 40
1.0
 40
1.0
 40
1.0
 40
2.0
 40
2.0
 40
2.0
 40
3.0
 40
3.0
 40
3.0
 40
4.0
 40
4.0
 40
4.0
 40
5.0
 40
5.0
 40
5.0
 40
6.0
 40
6.0
 40
6.0
 40
7.0
 40
7.0
 40
7.0
 40
8.0
 40
8.0
 40
8.0
 40
9.0
 40
9.0
 40
9.0
 40
10.0
 40
10.0
 40
10.0
 40
11.0
 40
11.0
 40
11.0
 40
12.0
 40
12.0
 40
12.0
 40
12.0
 10
226.9554610794485
 20
274.1433095800256
 30
0.0
 10
226.927555787609
 20
274.1991201637045
 30
0.0
 10
226.9099857890434
 20
274.2480405518676
 30
0.0
 10
226.8367774616868
 20
274.2480405518676
 30
0.0
 10
226.7635691343301
 20
274.2480405518676
 30
0.0
 10
226.7459991357645
 20
274.1991201637045
 30
0.0
 10
226.7180938439249
 20
274.1433095800256
 30
0.0
 10
226.7180938439249
 20
274.1433095800256
 30
0.0
 10
226.4042454381747
 20
273.5118231609912
 30
0.0
 10
226.4042454381747
 20
273.5118231609912
 30
0.0
 10
226.3518799522536
 20
273.4108817966829
 30
0.0
 10
226.3239746604141
 20
273.3443914099543
 30
0.0
 10
226.3239746604141
 20
273.2293251448384
 30
0.0
 10
226.3239746604141
 20
273.1387190738039
 30
0.0
 10
226.3449897567377
 20
273.076018294609
 30
0.0
 10
226.3832303418511
 20
272.9991926146065
 30
0.0
 10
226.3832303418511
 20
272.9991926146065
 30
0.0
 10
226.7180938439249
 20
272.3363558059747
 30
0.0
 10
226.7180938439249
 20
272.3363558059747
 30
0.0
 10
226.7425540380065
 20
272.2877799275874
 30
0.0
 10
226.767014232088
 20
272.2319693439084
 30
0.0
 10
226.8367774616868
 20
272.2319693439084
 30
0.0
 10
226.9065406912855
 20
272.2319693439084
 30
0.0
 10
226.931000885367
 20
272.2877799275874
 30
0.0
 10
226.9554610794485
 20
272.3363558059747
 30
0.0
 10
226.9554610794485
 20
272.3363558059747
 30
0.0
 10
227.2903245815224
 20
272.9991926146065
 30
0.0
 10
227.2903245815224
 20
272.9991926146065
 30
0.0
 10
227.3285651666358
 20
273.076018294609
 30
0.0
 10
227.3495802629593
 20
273.1387190738039
 30
0.0
 10
227.3495802629593
 20
273.2293251448384
 30
0.0
 10
227.3495802629593
 20
273.3443914099543
 30
0.0
 10
227.3216749711198
 20
273.4108817966829
 30
0.0
 10
227.2693094851988
 20
273.5118231609912
 30
0.0
 10
227.2693094851988
 20
273.5118231609912
 30
0.0
 10
226.9554610794485
 20
274.1433095800256
 30
0.0
 10
226.9554610794485
 20
274.1433095800256
 30
0.0
  0
HATCH
  5
98
330
73
100
AcDbEntity
  8
Calque 1
 62
   179
420
  1842203
100
AcDbHatch
 10
0.0
 20
0.0
 30
0.0
210
0.0
220
0.0
230
1.0
  2
SOLID
 70
     1
 71
     0
 91
        2
 92
        1
 93
        1
 72
     4
 94
        3
 73
     0
 74
     1
 95
       41
 96
       37
 40
0.0
 40
0.0
 40
0.0
 40
0.0
 40
1.0
 40
1.0
 40
1.0
 40
2.0
 40
2.0
 40
2.0
 40
3.0
 40
3.0
 40
3.0
 40
4.0
 40
4.0
 40
4.0
 40
5.0
 40
5.0
 40
5.0
 40
6.0
 40
6.0
 40
6.0
 40
7.0
 40
7.0
 40
7.0
 40
8.0
 40
8.0
 40
8.0
 40
9.0
 40
9.0
 40
9.0
 40
10.0
 40
10.0
 40
10.0
 40
11.0
 40
11.0
 40
11.0
 40
12.0
 40
12.0
 40
12.0
 40
12.0
 10
227.6076180850307
 20
273.6165541328332
 10
227.6739362168714
 20
273.4804727713937
 10
227.698396410953
 20
273.3795314070854
 10
227.698396410953
 20
273.2293251448384
 10
227.698396410953
 20
273.0618933938014
 10
227.6530933754358
 20
272.9575069317352
 10
227.5831578909491
 20
272.8141908650039
 10
227.5831578909491
 20
272.8141908650039
 10
227.2624192896829
 20
272.1723691526957
 10
227.2624192896829
 20
272.1723691526957
 10
227.1787034141644
 20
272.0049374016588
 10
227.039176954967
 20
271.8829809410269
 10
226.8367774616868
 20
271.8829809410269
 10
226.6343779684065
 20
271.8829809410269
 10
226.494851509209
 20
272.0049374016588
 10
226.4111356336906
 20
272.1723691526957
 10
226.4111356336906
 20
272.1723691526957
 10
226.0903970324243
 20
272.8141908650039
 10
226.0903970324243
 20
272.8141908650039
 10
226.0204615479377
 20
272.9575069317352
 10
225.9751585124205
 20
273.0618933938014
 10
225.9751585124205
 20
273.2293251448384
 10
225.9751585124205
 20
273.3795314070854
 10
225.999618706502
 20
273.4804727713937
 10
226.0659368383428
 20
273.6165541328332
 10
226.0659368383428
 20
273.6165541328332
 10
226.4147529863364
 20
274.3107413310625
 10
226.4147529863364
 20
274.3107413310625
 10
226.4984688618549
 20
274.4747279843415
 10
226.6414404188103
 20
274.5966844449733
 10
226.8367774616868
 20
274.5966844449733
 10
227.0321145045632
 20
274.5966844449733
 10
227.1750860615186
 20
274.4747279843415
 10
227.258801937037
 20
274.3107413310625
 10
227.258801937037
 20
274.3107413310625
 10
227.6076180850307
 20
273.6165541328332
 10
227.6076180850307
 20
273.6165541328332
 97
        0
 92
        1
 93
        1
 72
     4
 94
        3
 73
     0
 74
     1
 95
       41
 96
       37
 40
0.0
 40
0.0
 40
0.0
 40
0.0
 40
1.0
 40
1.0
 40
1.0
 40
2.0
 40
2.0
 40
2.0
 40
3.0
 40
3.0
 40
3.0
 40
4.0
 40
4.0
 40
4.0
 40
5.0
 40
5.0
 40
5.0
 40
6.0
 40
6.0
 40
6.0
 40
7.0
 40
7.0
 40
7.0
 40
8.0
 40
8.0
 40
8.0
 40
9.0
 40
9.0
 40
9.0
 40
10.0
 40
10.0
 40
10.0
 40
11.0
 40
11.0
 40
11.0
 40
12.0
 40
12.0
 40
12.0
 40
12.0
 10
226.9554610794485
 20
274.1433095800256
 10
226.927555787609
 20
274.1991201637045
 10
226.9099857890434
 20
274.2480405518676
 10
226.8367774616868
 20
274.2480405518676
 10
226.7635691343301
 20
274.2480405518676
 10
226.7459991357645
 20
274.1991201637045
 10
226.7180938439249
 20
274.1433095800256
 10
226.7180938439249
 20
274.1433095800256
 10
226.4042454381747
 20
273.5118231609912
 10
226.4042454381747
 20
273.5118231609912
 10
226.3518799522536
 20
273.4108817966829
 10
226.3239746604141
 20
273.3443914099543
 10
226.3239746604141
 20
273.2293251448384
 10
226.3239746604141
 20
273.1387190738039
 10
226.3449897567377
 20
273.076018294609
 10
226.3832303418511
 20
272.9991926146065
 10
226.3832303418511
 20
272.9991926146065
 10
226.7180938439249
 20
272.3363558059747
 10
226.7180938439249
 20
272.3363558059747
 10
226.7425540380065
 20
272.2877799275874
 10
226.767014232088
 20
272.2319693439084
 10
226.8367774616868
 20
272.2319693439084
 10
226.9065406912855
 20
272.2319693439084
 10
226.931000885367
 20
272.2877799275874
 10
226.9554610794485
 20
272.3363558059747
 10
226.9554610794485
 20
272.3363558059747
 10
227.2903245815224
 20
272.9991926146065
 10
227.2903245815224
 20
272.9991926146065
 10
227.3285651666358
 20
273.076018294609
 10
227.3495802629593
 20
273.1387190738039
 10
227.3495802629593
 20
273.2293251448384
 10
227.3495802629593
 20
273.3443914099543
 10
227.3216749711198
 20
273.4108817966829
 10
227.2693094851988
 20
273.5118231609912
 10
227.2693094851988
 20
273.5118231609912
 10
226.9554610794485
 20
274.1433095800256
 10
226.9554610794485
 20
274.1433095800256
 97
        0
 75
     2
 76
     1
 98
        0
  0
ENDBLK
  5
76
330
73
100
AcDbEntity
  8
0
100
AcDbBlockEnd
  0
ENDSEC
  0
SECTION
  2
ENTITIES
  0
SPLINE
  5
3C
330
1F
100
AcDbEntity
  8
Calque 1
 62
   179
420
  1842203
370
    35
100
AcDbSpline
210
0.0
220
0.0
230
1.0
 70
    11
 71
     3
 72
    17
 73
    13
 74
     0
 42
0.0000000001
 43
0.0000000001
 40
0.0
 40
0.0
 40
0.0
 40
0.0
 40
1.0
 40
1.0
 40
1.0
 40
2.0
 40
2.0
 40
2.0
 40
3.0
 40
3.0
 40
3.0
 40
4.0
 40
4.0
 40
4.0
 40
4.0
 10
87.43503080307657
 20
254.9997626134719
 30
0.0
 10
87.43503080307657
 20
234.2892129317095
 30
0.0
 10
70.64551913453818
 20
217.4997012631711
 30
0.0
 10
49.9349694527757
 20
217.4997012631711
 30
0.0
 10
29.22407526123741
 20
217.4997012631711
 30
0.0
 10
12.43508035736271
 20
234.2892129317095
 30
0.0
 10
12.43508035736271
 20
254.9997626134719
 30
0.0
 10
12.43508035736271
 20
275.7103122952344
 30
0.0
 10
29.22407526123741
 20
292.4996517088849
 30
0.0
 10
49.9349694527757
 20
292.4996517088849
 30
0.0
 10
70.64551913453818
 20
292.4996517088849
 30
0.0
 10
87.43503080307657
 20
275.7103122952344
 30
0.0
 10
87.43503080307657
 20
254.9997626134719
 30
0.0
  0
SPLINE
  5
3D
330
1F
100
AcDbEntity
  8
Calque 1
 62
   179
420
  1842203
370
    35
100
AcDbSpline
210
0.0
220
0.0
230
1.0
 70
    11
 71
     3
 72
    47
 73
    43
 74
     0
 42
0.0000000001
 43
0.0000000001
 40
0.0
 40
0.0
 40
0.0
 40
0.0
 40
1.0
 40
1.0
 40
1.0
 40
2.0
 40
2.0
 40
2.0
 40
3.0
 40
3.0
 40
3.0
 40
4.0
 40
4.0
 40
4.0
 40
5.0
 40
5.0
 40
5.0
 40
6.0
 40
6.0
 40
6.0
 40
7.0
 40
7.0
 40
7.0
 40
8.0
 40
8.0
 40
8.0
 40
9.0
 40
9.0
 40
9.0
 40
10.0
 40
10.0
 40
10.0
 40
11.0
 40
11.0
 40
11.0
 40
12.0
 40
12.0
 40
12.0
 40
13.0
 40
13.0
 40
13.0
 40
14.0
 40
14.0
 40
14.0
 40
14.0
 10
79.8795869100908
 20
255.7497603953802
 30
0.0
 10
79.8795869100908
 20
255.7497603953802
 30
0.0
 10
79.13492902970738
 20
255.7497603953802
 30
0.0
 10
79.13492902970738
 20
255.7497603953802
 30
0.0
 10
79.13492902970738
 20
255.7497603953802
 30
0.0
 10
79.13492902970738
 20
263.7496218991431
 30
0.0
 10
79.13492902970738
 20
263.7496218991431
 30
0.0
 10
79.13492902970738
 20
263.7496218991431
 30
0.0
 10
20.73500987584401
 20
263.7496218991431
 30
0.0
 10
20.73500987584401
 20
263.7496218991431
 30
0.0
 10
20.73500987584401
 20
263.7496218991431
 30
0.0
 10
20.73500987584401
 20
255.7497603953802
 30
0.0
 10
20.73500987584401
 20
255.7497603953802
 30
0.0
 10
20.73500987584401
 20
255.7497603953802
 30
0.0
 10
19.98501209393575
 20
255.7497603953802
 30
0.0
 10
19.98501209393575
 20
255.7497603953802
 30
0.0
 10
19.57091134342876
 20
255.7497603953802
 30
0.0
 10
19.2350143120275
 20
255.4138633639789
 30
0.0
 10
19.2350143120275
 20
254.9997626134719
 30
0.0
 10
19.2350143120275
 20
254.5854896080771
 30
0.0
 10
19.57091134342876
 20
254.2497648315637
 30
0.0
 10
19.98501209393575
 20
254.2497648315637
 30
0.0
 10
19.98501209393575
 20
254.2497648315637
 30
0.0
 10
20.73500987584401
 20
254.2497648315637
 30
0.0
 10
20.73500987584401
 20
254.2497648315637
 30
0.0
 10
20.73500987584401
 20
254.2497648315637
 30
0.0
 10
20.73500987584401
 20
246.249731072913
 30
0.0
 10
20.73500987584401
 20
246.249731072913
 30
0.0
 10
20.73500987584401
 20
246.249731072913
 30
0.0
 10
79.13492902970738
 20
246.249731072913
 30
0.0
 10
79.13492902970738
 20
246.249731072913
 30
0.0
 10
79.13492902970738
 20
246.249731072913
 30
0.0
 10
79.13492902970738
 20
254.2497648315637
 30
0.0
 10
79.13492902970738
 20
254.2497648315637
 30
0.0
 10
79.13492902970738
 20
254.2497648315637
 30
0.0
 10
79.8795869100908
 20
254.2497648315637
 30
0.0
 10
79.8795869100908
 20
254.2497648315637
 30
0.0
 10
80.29385991548568
 20
254.2497648315637
 30
0.0
 10
80.62958469199906
 20
254.5854896080771
 30
0.0
 10
80.62958469199906
 20
254.9997626134719
 30
0.0
 10
80.62958469199906
 20
255.4138633639789
 30
0.0
 10
80.29385991548568
 20
255.7497603953802
 30
0.0
 10
79.8795869100908
 20
255.7497603953802
 30
0.0
  0
SPLINE
  5
3E
330
1F
100
AcDbEntity
  8
Calque 1
 62
   179
420
  1842203
370
    35
100
AcDbSpline
210
0.0
220
0.0
230
1.0
 70
    11
 71
     3
 72
    17
 73
    13
 74
     0
 42
0.0000000001
 43
0.0000000001
 40
0.0
 40
0.0
 40
0.0
 40
0.0
 40
1.0
 40
1.0
 40
1.0
 40
2.0
 40
2.0
 40
2.0
 40
3.0
 40
3.0
 40
3.0
 40
4.0
 40
4.0
 40
4.0
 40
4.0
 10
246.229404996141
 20
257.7046811181356
 30
0.0
 10
246.229404996141
 20
236.9941314363731
 30
0.0
 10
229.4400655824905
 20
220.2047920227226
 30
0.0
 10
208.729515900728
 20
220.2047920227226
 30
0.0
 10
188.0186217091897
 20
220.2047920227226
 30
0.0
 10
171.2294545504271
 20
236.9941314363731
 30
0.0
 10
171.2294545504271
 20
257.7046811181356
 30
0.0
 10
171.2294545504271
 20
278.415230799898
 30
0.0
 10
188.0186217091897
 20
295.2045702135485
 30
0.0
 10
208.729515900728
 20
295.2045702135485
 30
0.0
 10
229.4400655824905
 20
295.2045702135485
 30
0.0
 10
246.229404996141
 20
278.415230799898
 30
0.0
 10
246.229404996141
 20
257.7046811181356
 30
0.0
  0
POLYLINE
  5
3F
330
1F
100
AcDbEntity
  8
Calque 1
 62
   179
420
  1842203
370
    35
100
AcDb2dPolyline
 66
     1
 10
0.0
 20
0.0
 30
0.0
  0
VERTEX
  5
40
330
3F
100
AcDbEntity
  8
Calque 1
 62
   179
420
  1842203
370
    35
100
AcDbVertex
100
AcDb2dVertex
 10
237.9294754776597
 20
248.9548218324645
 30
0.0
  0
VERTEX
  5
41
330
3F
100
AcDbEntity
  8
Calque 1
 62
   179
420
  1842203
370
    35
100
AcDbVertex
100
AcDb2dVertex
 10
179.5295563237963
 20
248.9548218324645
 30
0.0
  0
VERTEX
  5
42
330
3F
100
AcDbEntity
  8
Calque 1
 62
   179
420
  1842203
370
    35
100
AcDbVertex
100
AcDb2dVertex
 10
179.5295563237963
 20
266.4545404038067
 30
0.0
  0
VERTEX
  5
43
330
3F
100
AcDbEntity
  8
Calque 1
 62
   179
420
  1842203
370
    35
100
AcDbVertex
100
AcDb2dVertex
 10
237.9294754776597
 20
266.4545404038067
 30
0.0
  0
VERTEX
  5
44
330
3F
100
AcDbEntity
  8
Calque 1
 62
   179
420
  1842203
370
    35
100
AcDbVertex
100
AcDb2dVertex
 10
237.9294754776597
 20
248.9548218324645
 30
0.0
  0
SEQEND
  5
45
330
3F
100
AcDbEntity
  8
Calque 1
370
    35
  0
SPLINE
  5
46
330
1F
100
AcDbEntity
  8
Calque 1
 62
   179
420
  1842203
370
    35
100
AcDbSpline
210
0.0
220
0.0
230
1.0
 70
    11
 71
     3
 72
    50
 73
    46
 74
     0
 42
0.0000000001
 43
0.0000000001
 40
0.0
 40
0.0
 40
0.0
 40
0.0
 40
1.0
 40
1.0
 40
1.0
 40
2.0
 40
2.0
 40
2.0
 40
3.0
 40
3.0
 40
3.0
 40
4.0
 40
4.0
 40
4.0
 40
5.0
 40
5.0
 40
5.0
 40
6.0
 40
6.0
 40
6.0
 40
7.0
 40
7.0
 40
7.0
 40
8.0
 40
8.0
 40
8.0
 40
9.0
 40
9.0
 40
9.0
 40
10.0
 40
10.0
 40
10.0
 40
11.0
 40
11.0
 40
11.0
 40
12.0
 40
12.0
 40
12.0
 40
13.0
 40
13.0
 40
13.0
 40
14.0
 40
14.0
 40
14.0
 40
15.0
 40
15.0
 40
15.0
 40
15.0
 10
129.6042331447429
 20
295.0385165016148
 30
0.0
 10
108.8936834629804
 20
295.0385165016148
 30
0.0
 10
92.10417179444205
 20
278.2490048330764
 30
0.0
 10
92.10417179444205
 20
257.5386274062018
 30
0.0
 10
92.10417179444205
 20
238.5235825860202
 30
0.0
 10
106.2576669134761
 20
222.8154871037059
 30
0.0
 10
124.6041905137252
 20
220.3708457346563
 30
0.0
 10
124.6041905137252
 20
220.3708457346563
 30
0.0
 10
124.6041905137252
 20
230.2314045374943
 30
0.0
 10
124.6041905137252
 20
230.2314045374943
 30
0.0
 10
105.8099764598289
 20
231.5662076638166
 30
0.0
 10
97.46577743515782
 20
240.7398139737169
 30
0.0
 10
97.46577743515782
 20
257.1010999909407
 30
0.0
 10
97.46577743515782
 20
257.1010999909407
 30
0.0
 10
97.88452906763807
 20
258.2886251881101
 30
0.0
 10
99.65410353101508
 20
258.2886251881101
 30
0.0
 10
99.65410353101508
 20
258.2886251881101
 30
0.0
 10
100.4041013129233
 20
258.2886251881101
 30
0.0
 10
100.4041013129233
 20
258.2886251881101
 30
0.0
 10
100.4041013129233
 20
258.2886251881101
 30
0.0
 10
100.4041013129233
 20
266.2884866918729
 30
0.0
 10
100.4041013129233
 20
266.2884866918729
 30
0.0
 10
100.4041013129233
 20
266.2884866918729
 30
0.0
 10
158.8043649765625
 20
266.2884866918729
 30
0.0
 10
158.8043649765625
 20
266.2884866918729
 30
0.0
 10
158.8043649765625
 20
266.2884866918729
 30
0.0
 10
158.8043649765625
 20
258.2886251881101
 30
0.0
 10
158.8043649765625
 20
258.2886251881101
 30
0.0
 10
158.8043649765625
 20
258.2886251881101
 30
0.0
 10
159.5486783471701
 20
258.2886251881101
 30
0.0
 10
159.5486783471701
 20
258.2886251881101
 30
0.0
 10
161.5235806369217
 20
258.2886251881101
 30
0.0
 10
161.7370044430274
 20
257.1010999909407
 30
0.0
 10
161.7370044430274
 20
257.1010999909407
 30
0.0
 10
161.7370044430274
 20
240.7635851482469
 30
0.0
 10
153.0946322074047
 20
231.5927349165528
 30
0.0
 10
134.6041035208727
 20
230.236916693907
 30
0.0
 10
134.6041035208727
 20
230.236916693907
 30
0.0
 10
134.6041035208727
 20
220.3708457346563
 30
0.0
 10
134.6041035208727
 20
220.3708457346563
 30
0.0
 10
152.9506271211219
 20
222.8161761232575
 30
0.0
 10
167.1041222401559
 20
238.5235825860202
 30
0.0
 10
167.1041222401559
 20
257.5386274062018
 30
0.0
 10
167.1041222401559
 20
278.2490048330764
 30
0.0
 10
150.3147828265054
 20
295.0385165016148
 30
0.0
 10
129.6042331447429
 20
295.0385165016148
 30
0.0
  0
INSERT
  5
48
330
1F
100
AcDbEntity
  8
Calque 1
100
AcDbBlockReference
  2
block 2
 10
0.0
 20
0.0
 30
0.0
  0
INSERT
  5
74
330
1F
100
AcDbEntity
  8
Calque 1
100
AcDbBlockReference
  2
block 3
 10
0.0
 20
0.0
 30
0.0
  0
POLYLINE
  5
99
330
1F
100
AcDbEntity
  8
Calque 1
 62
   179
420
  1842203
370
    35
100
AcDb2dPolyline
 66
     1
 10
0.0
 20
0.0
 30
0.0
  0
VERTEX
  5
9A
330
99
100
AcDbEntity
  8
Calque 1
 62
   179
420
  1842203
370
    35
100
AcDbVertex
100
AcDb2dVertex
 10
803.6289967455524
 20
84.81451719348301
 30
0.0
  0
VERTEX
  5
9B
330
99
100
AcDbEntity
  8
Calque 1
 62
   179
420
  1842203
370
    35
100
AcDbVertex
100
AcDb2dVertex
 10
553.6292767630981
 20
84.81451719348301
 30
0.0
  0
VERTEX
  5
9C
330
99
100
AcDbEntity
  8
Calque 1
 62
   179
420
  1842203
370
    35
100
AcDbVertex
100
AcDb2dVertex
 10
553.6292767630981
 20
294.8145851473473
 30
0.0
  0
VERTEX
  5
9D
330
99
100
AcDbEntity
  8
Calque 1
 62
   179
420
  1842203
370
    35
100
AcDbVertex
100
AcDb2dVertex
 10
803.6289967455524
 20
294.8145851473473
 30
0.0
  0
VERTEX
  5
9E
330
99
100
AcDbEntity
  8
Calque 1
 62
   179
420
  1842203
370
    35
100
AcDbVertex
100
AcDb2dVertex
 10
803.6289967455524
 20
84.81451719348301
 30
0.0
  0
SEQEND
  5
9F
330
99
100
AcDbEntity
  8
Calque 1
370
    35
  0
POLYLINE
  5
A0
330
1F
100
AcDbEntity
  8
Calque 1
 62
   179
420
  1842203
370
    35
100
AcDb2dPolyline
 66
     1
 10
0.0
 20
0.0
 30
0.0
  0
VERTEX
  5
A1
330
A0
100
AcDbEntity
  8
Calque 1
 62
   179
420
  1842203
370
    35
100
AcDbVertex
100
AcDb2dVertex
 10
589.7118526408857
 20
98.81470546228772
 30
0.0
  0
VERTEX
  5
A2
330
A0
100
AcDbEntity
  8
Calque 1
 62
   179
420
  1842203
370
    35
100
AcDbVertex
100
AcDb2dVertex
 10
606.2118038428673
 20
98.81470546228772
 30
0.0
  0
VERTEX
  5
A3
330
A0
100
AcDbEntity
  8
Calque 1
 62
   179
420
  1842203
370
    35
100
AcDbVertex
100
AcDb2dVertex
 10
606.2118038428673
 20
91.81461132788537
 30
0.0
  0
VERTEX
  5
A4
330
A0
100
AcDbEntity
  8
Calque 1
 62
   179
420
  1842203
370
    35
100
AcDbVertex
100
AcDb2dVertex
 10
589.7118526408857
 20
91.81461132788537
 30
0.0
  0
VERTEX
  5
A5
330
A0
100
AcDbEntity
  8
Calque 1
 62
   179
420
  1842203
370
    35
100
AcDbVertex
100
AcDb2dVertex
 10
589.7118526408857
 20
98.81470546228772
 30
0.0
  0
SEQEND
  5
A6
330
A0
100
AcDbEntity
  8
Calque 1
370
    35
  0
POLYLINE
  5
A7
330
1F
100
AcDbEntity
  8
Calque 1
 62
   179
420
  1842203
370
    35
100
AcDb2dPolyline
 66
     1
 10
0.0
 20
0.0
 30
0.0
  0
VERTEX
  5
A8
330
A7
100
AcDbEntity
  8
Calque 1
 62
   179
420
  1842203
370
    35
100
AcDbVertex
100
AcDb2dVertex
 10
575.2486432334109
 20
310.9732994164029
 30
0.0
  0
VERTEX
  5
A9
330
A7
100
AcDbEntity
  8
Calque 1
 62
   179
420
  1842203
370
    35
100
AcDbVertex
100
AcDb2dVertex
 10
572.510479535383
 20
313.711118604655
 30
0.0
  0
VERTEX
  5
AA
330
A7
100
AcDbEntity
  8
Calque 1
 62
   179
420
  1842203
370
    35
100
AcDbVertex
100
AcDb2dVertex
 10
553.6292767630981
 20
294.8300880872581
 30
0.0
  0
VERTEX
  5
AB
330
A7
100
AcDbEntity
  8
Calque 1
 62
   179
420
  1842203
370
    35
100
AcDbVertex
100
AcDb2dVertex
 10
572.510479535383
 20
275.9485408051975
 30
0.0
  0
VERTEX
  5
AC
330
A7
100
AcDbEntity
  8
Calque 1
 62
   179
420
  1842203
370
    35
100
AcDbVertex
100
AcDb2dVertex
 10
575.260356565788
 20
278.6989346002662
 30
0.0
  0
SEQEND
  5
AD
330
A7
100
AcDbEntity
  8
Calque 1
370
    35
  0
POLYLINE
  5
AE
330
1F
100
AcDbEntity
  8
Calque 1
 62
   179
420
  1842203
370
    35
100
AcDb2dPolyline
 66
     1
 10
0.0
 20
0.0
 30
0.0
  0
VERTEX
  5
AF
330
AE
100
AcDbEntity
  8
Calque 1
 62
   179
420
  1842203
370
    35
100
AcDbVertex
100
AcDb2dVertex
 10
572.5263269850695
 20
243.6789991259219
 30
0.0
  0
VERTEX
  5
B0
330
AE
100
AcDbEntity
  8
Calque 1
 62
   179
420
  1842203
370
    35
100
AcDbVertex
100
AcDb2dVertex
 10
575.2644906830975
 20
240.9410076827819
 30
0.0
  0
VERTEX
  5
B1
330
AE
100
AcDbEntity
  8
Calque 1
 62
   179
420
  1842203
370
    35
100
AcDbVertex
100
AcDb2dVertex
 10
594.1450044358307
 20
259.8223827099546
 30
0.0
  0
VERTEX
  5
B2
330
AE
100
AcDbEntity
  8
Calque 1
 62
   179
420
  1842203
370
    35
100
AcDbVertex
100
AcDb2dVertex
 10
575.2644906830975
 20
278.7035854822395
 30
0.0
  0
VERTEX
  5
B3
330
AE
100
AcDbEntity
  8
Calque 1
 62
   179
420
  1842203
370
    35
100
AcDbVertex
100
AcDb2dVertex
 10
572.513924633141
 20
275.9531916871707
 30
0.0
  0
SEQEND
  5
B4
330
AE
100
AcDbEntity
  8
Calque 1
370
    35
  0
POLYLINE
  5
B5
330
1F
100
AcDbEntity
  8
Calque 1
 62
   179
420
  1842203
370
    35
100
AcDb2dPolyline
 66
     1
 10
0.0
 20
0.0
 30
0.0
  0
VERTEX
  5
B6
330
B5
100
AcDbEntity
  8
Calque 1
 62
   179
420
  1842203
370
    35
100
AcDbVertex
100
AcDb2dVertex
 10
575.2486432334109
 20
240.9565106226927
 30
0.0
  0
VERTEX
  5
B7
330
B5
100
AcDbEntity
  8
Calque 1
 62
   179
420
  1842203
370
    35
100
AcDbVertex
100
AcDb2dVertex
 10
572.510479535383
 20
243.6943298109449
 30
0.0
  0
VERTEX
  5
B8
330
B5
100
AcDbEntity
  8
Calque 1
 62
   179
420
  1842203
370
    35
100
AcDbVertex
100
AcDb2dVertex
 10
553.6292767630981
 20
224.81312703866
 30
0.0
  0
VERTEX
  5
B9
330
B5
100
AcDbEntity
  8
Calque 1
 62
   179
420
  1842203
370
    35
100
AcDbVertex
100
AcDb2dVertex
 10
572.510479535383
 20
205.9319242663752
 30
0.0
  0
VERTEX
  5
BA
330
B5
100
AcDbEntity
  8
Calque 1
 62
   179
420
  1842203
370
    35
100
AcDbVertex
100
AcDb2dVertex
 10
575.260356565788
 20
208.682145806556
 30
0.0
  0
SEQEND
  5
BB
330
B5
100
AcDbEntity
  8
Calque 1
370
    35
  0
POLYLINE
  5
BC
330
1F
100
AcDbEntity
  8
Calque 1
 62
   179
420
  1842203
370
    35
100
AcDb2dPolyline
 66
     1
 10
0.0
 20
0.0
 30
0.0
  0
VERTEX
  5
BD
330
BC
100
AcDbEntity
  8
Calque 1
 62
   179
420
  1842203
370
    35
100
AcDbVertex
100
AcDb2dVertex
 10
572.5263269850695
 20
173.6622103322118
 30
0.0
  0
VERTEX
  5
BE
330
BC
100
AcDbEntity
  8
Calque 1
 62
   179
420
  1842203
370
    35
100
AcDbVertex
100
AcDb2dVertex
 10
575.2644906830975
 20
170.9243911439596
 30
0.0
  0
VERTEX
  5
BF
330
BC
100
AcDbEntity
  8
Calque 1
 62
   179
420
  1842203
370
    35
100
AcDbVertex
100
AcDb2dVertex
 10
594.1450044358307
 20
189.8054216613565
 30
0.0
  0
VERTEX
  5
C0
330
BC
100
AcDbEntity
  8
Calque 1
 62
   179
420
  1842203
370
    35
100
AcDbVertex
100
AcDb2dVertex
 10
575.2644906830975
 20
208.6869689434172
 30
0.0
  0
VERTEX
  5
C1
330
BC
100
AcDbEntity
  8
Calque 1
 62
   179
420
  1842203
370
    35
100
AcDbVertex
100
AcDb2dVertex
 10
572.513924633141
 20
205.9365751483485
 30
0.0
  0
SEQEND
  5
C2
330
BC
100
AcDbEntity
  8
Calque 1
370
    35
  0
POLYLINE
  5
C3
330
1F
100
AcDbEntity
  8
Calque 1
 62
   179
420
  1842203
370
    35
100
AcDb2dPolyline
 66
     1
 10
0.0
 20
0.0
 30
0.0
  0
VERTEX
  5
C4
330
C3
100
AcDbEntity
  8
Calque 1
 62
   179
420
  1842203
370
    35
100
AcDbVertex
100
AcDb2dVertex
 10
575.2486432334109
 20
170.9398940838705
 30
0.0
  0
VERTEX
  5
C5
330
C3
100
AcDbEntity
  8
Calque 1
 62
   179
420
  1842203
370
    35
100
AcDbVertex
100
AcDb2dVertex
 10
572.510479535383
 20
173.6775410172347
 30
0.0
  0
VERTEX
  5
C6
330
C3
100
AcDbEntity
  8
Calque 1
 62
   179
420
  1842203
370
    35
100
AcDbVertex
100
AcDb2dVertex
 10
553.6292767630981
 20
154.7963382449499
 30
0.0
  0
VERTEX
  5
C7
330
C3
100
AcDbEntity
  8
Calque 1
 62
   179
420
  1842203
370
    35
100
AcDbVertex
100
AcDb2dVertex
 10
572.510479535383
 20
135.9149632177771
 30
0.0
  0
VERTEX
  5
C8
330
C3
100
AcDbEntity
  8
Calque 1
 62
   179
420
  1842203
370
    35
100
AcDbVertex
100
AcDb2dVertex
 10
575.260356565788
 20
138.6655292677337
 30
0.0
  0
SEQEND
  5
C9
330
C3
100
AcDbEntity
  8
Calque 1
370
    35
  0
POLYLINE
  5
CA
330
1F
100
AcDbEntity
  8
Calque 1
 62
   179
420
  1842203
370
    35
100
AcDb2dPolyline
 66
     1
 10
0.0
 20
0.0
 30
0.0
  0
VERTEX
  5
CB
330
CA
100
AcDbEntity
  8
Calque 1
 62
   179
420
  1842203
370
    35
100
AcDbVertex
100
AcDb2dVertex
 10
572.5263269850695
 20
103.6454215385016
 30
0.0
  0
VERTEX
  5
CC
330
CA
100
AcDbEntity
  8
Calque 1
 62
   179
420
  1842203
370
    35
100
AcDbVertex
100
AcDb2dVertex
 10
575.2644906830975
 20
100.9076023502494
 30
0.0
  0
VERTEX
  5
CD
330
CA
100
AcDbEntity
  8
Calque 1
 62
   179
420
  1842203
370
    35
100
AcDbVertex
100
AcDb2dVertex
 10
594.1450044358307
 20
119.7888051225343
 30
0.0
  0
VERTEX
  5
CE
330
CA
100
AcDbEntity
  8
Calque 1
 62
   179
420
  1842203
370
    35
100
AcDbVertex
100
AcDb2dVertex
 10
575.2644906830975
 20
138.6703524045949
 30
0.0
  0
VERTEX
  5
CF
330
CA
100
AcDbEntity
  8
Calque 1
 62
   179
420
  1842203
370
    35
100
AcDbVertex
100
AcDb2dVertex
 10
572.513924633141
 20
135.9194418448625
 30
0.0
  0
SEQEND
  5
D0
330
CA
100
AcDbEntity
  8
Calque 1
370
    35
  0
POLYLINE
  5
D1
330
1F
100
AcDbEntity
  8
Calque 1
 62
   179
420
  1842203
370
    35
100
AcDb2dPolyline
 66
     1
 10
0.0
 20
0.0
 30
0.0
  0
VERTEX
  5
D2
330
D1
100
AcDbEntity
  8
Calque 1
 62
   179
420
  1842203
370
    35
100
AcDbVertex
100
AcDb2dVertex
 10
575.2486432334109
 20
100.9579007775157
 30
0.0
  0
VERTEX
  5
D3
330
D1
100
AcDbEntity
  8
Calque 1
 62
   179
420
  1842203
370
    35
100
AcDbVertex
100
AcDb2dVertex
 10
572.510479535383
 20
103.695375455992
 30
0.0
  0
VERTEX
  5
D4
330
D1
100
AcDbEntity
  8
Calque 1
 62
   179
420
  1842203
370
    35
100
AcDbVertex
100
AcDb2dVertex
 10
553.6292767630981
 20
84.81486170325881
 30
0.0
  0
VERTEX
  5
D5
330
D1
100
AcDbEntity
  8
Calque 1
 62
   179
420
  1842203
370
    35
100
AcDbVertex
100
AcDb2dVertex
 10
572.510479535383
 20
65.93331442119818
 30
0.0
  0
VERTEX
  5
D6
330
D1
100
AcDbEntity
  8
Calque 1
 62
   179
420
  1842203
370
    35
100
AcDbVertex
100
AcDb2dVertex
 10
575.260356565788
 20
68.6838804711548
 30
0.0
  0
SEQEND
  5
D7
330
D1
100
AcDbEntity
  8
Calque 1
370
    35
  0
ENDSEC
  0
SECTION
  2
OBJECTS
  0
DICTIONARY
  5
C
330
0
100
AcDbDictionary
281
     1
  3
ACAD_GROUP
350
D
  3
ACAD_LAYOUT
350
1A
  3
ACAD_MLINESTYLE
350
17
  3
ACAD_PLOTSETTINGS
350
19
  3
ACAD_PLOTSTYLENAME
350
E
  3
ACAD_TABLESTYLE
350
D8
  3
ACAD_VISUALSTYLE
350
2A
  0
DICTIONARY
  5
D
102
{ACAD_REACTORS
330
C
102
}
330
C
100
AcDbDictionary
281
     1
  0
DICTIONARY
  5
1A
102
{ACAD_REACTORS
330
C
102
}
330
C
100
AcDbDictionary
281
     1
  3
Layout1
350
1E
  3
Layout2
350
26
  3
Model
350
22
  0
DICTIONARY
  5
17
102
{ACAD_REACTORS
330
C
102
}
330
C
100
AcDbDictionary
281
     1
  3
Standard
350
18
  0
DICTIONARY
  5
19
102
{ACAD_REACTORS
330
C
102
}
330
C
100
AcDbDictionary
281
     1
  0
ACDBDICTIONARYWDFLT
  5
E
102
{ACAD_REACTORS
330
C
102
}
330
C
100
AcDbDictionary
281
     1
  3
Normal
350
F
100
AcDbDictionaryWithDefault
340
F
  0
DICTIONARY
  5
D8
102
{ACAD_REACTORS
330
C
102
}
330
C
100
AcDbDictionary
281
     1
  0
DICTIONARY
  5
2A
102
{ACAD_REACTORS
330
C
102
}
330
C
100
AcDbDictionary
281
     1
  3
2dWireframe
350
2F
  3
3D Hidden
350
31
  3
3dWireframe
350
30
  3
Basic
350
32
  3
Brighten
350
36
  3
ColorChange
350
3A
  3
Conceptual
350
34
  3
Dim
350
35
  3
Facepattern
350
39
  3
Flat
350
2B
  3
FlatWithEdges
350
2C
  3
Gouraud
350
2D
  3
GouraudWithEdges
350
2E
  3
Linepattern
350
38
  3
Realistic
350
33
  3
Thicken
350
37
  0
LAYOUT
  5
1E
102
{ACAD_REACTORS
330
1A
102
}
330
1A
100
AcDbPlotSettings
  1

  2
none_device
  4

  6

 40
0.0
 41
0.0
 42
0.0
 43
0.0
 44
0.0
 45
0.0
 46
0.0
 47
0.0
 48
0.0
 49
0.0
140
0.0
141
0.0
142
1.0
143
1.0
 70
   688
 72
     0
 73
     0
 74
     5
  7

 75
    16
 76
     0
 77
     2
 78
   300
147
1.0
148
0.0
149
0.0
100
AcDbLayout
  1
Layout1
 70
     1
 71
     1
 10
0.0
 20
0.0
 11
12.0
 21
9.0
 12
0.0
 22
0.0
 32
0.0
 14
1.000000000000000E+20
 24
1.000000000000000E+20
 34
1.000000000000000E+20
 15
-1.000000000000000E+20
 25
-1.000000000000000E+20
 35
-1.000000000000000E+20
146
0.0
 13
0.0
 23
0.0
 33
0.0
 16
1.0
 26
0.0
 36
0.0
 17
0.0
 27
1.0
 37
0.0
 76
     0
330
1B
  0
LAYOUT
  5
26
102
{ACAD_REACTORS
330
1A
102
}
330
1A
100
AcDbPlotSettings
  1

  2
none_device
  4

  6

 40
0.0
 41
0.0
 42
0.0
 43
0.0
 44
0.0
 45
0.0
 46
0.0
 47
0.0
 48
0.0
 49
0.0
140
0.0
141
0.0
142
1.0
143
1.0
 70
   688
 72
     0
 73
     0
 74
     5
  7

 75
    16
 76
     0
 77
     2
 78
   300
147
1.0
148
0.0
149
0.0
100
AcDbLayout
  1
Layout2
 70
     1
 71
     2
 10
0.0
 20
0.0
 11
0.0
 21
0.0
 12
0.0
 22
0.0
 32
0.0
 14
0.0
 24
0.0
 34
0.0
 15
0.0
 25
0.0
 35
0.0
146
0.0
 13
0.0
 23
0.0
 33
0.0
 16
1.0
 26
0.0
 36
0.0
 17
0.0
 27
1.0
 37
0.0
 76
     0
330
23
  0
LAYOUT
  5
22
102
{ACAD_REACTORS
330
1A
102
}
330
1A
100
AcDbPlotSettings
  1

  2
none_device
  4

  6

 40
0.0
 41
0.0
 42
0.0
 43
0.0
 44
0.0
 45
0.0
 46
0.0
 47
0.0
 48
0.0
 49
0.0
140
0.0
141
0.0
142
1.0
143
1.0
 70
  1712
 72
     0
 73
     0
 74
     0
  7

 75
     0
 76
     0
 77
     2
 78
   300
147
1.0
148
0.0
149
0.0
100
AcDbLayout
  1
Model
 70
     1
 71
     0
 10
0.0
 20
0.0
 11
12.0
 21
9.0
 12
0.0
 22
0.0
 32
0.0
 14
1.000000000000000E+20
 24
1.000000000000000E+20
 34
1.000000000000000E+20
 15
-1.000000000000000E+20
 25
-1.000000000000000E+20
 35
-1.000000000000000E+20
146
0.0
 13
0.0
 23
0.0
 33
0.0
 16
1.0
 26
0.0
 36
0.0
 17
0.0
 27
1.0
 37
0.0
 76
     0
330
1F
331
29
  0
MLINESTYLE
  5
18
102
{ACAD_REACTORS
330
17
102
}
330
17
100
AcDbMlineStyle
  2
Standard
 70
     0
  3

 62
   256
 51
90.0
 52
90.0
 71
     2
 49
0.5
 62
   256
  6
BYLAYER
 49
-0.5
 62
   256
  6
BYLAYER
  0
ACDBPLACEHOLDER
  5
F
102
{ACAD_REACTORS
330
E
102
}
330
E
  0
VISUALSTYLE
  5
2F
102
{ACAD_REACTORS
330
2A
102
}
330
2A
100
AcDbVisualStyle
  2
2dWireframe
 70
     4
 71
     0
 72
     2
 73
     0
 90
        0
 40
-0.6
 41
-30.0
 62
     5
 63
     7
421
 16777215
 74
     1
 91
        4
 64
     7
 65
   257
 75
     1
175
     1
 42
1.0
 92
        0
 66
   257
 43
1.0
 76
     1
 77
     6
 78
     2
 67
     7
 79
     5
170
     0
171
     0
290
     0
174
     0
 93
        1
 44
0.0
173
     0
291
     0
 45
0.0
1001
ACAD
1000
AcDbSavedByObjectVersion
1070
     0
  0
VISUALSTYLE
  5
31
102
{ACAD_REACTORS
330
2A
102
}
330
2A
100
AcDbVisualStyle
  2
3D Hidden
 70
     6
 71
     1
 72
     2
 73
     2
 90
        0
 40
-0.6
 41
-30.0
 62
     5
 63
     7
421
 16777215
 74
     2
 91
        2
 64
     7
 65
   257
 75
     2
175
     1
 42
40.0
 92
        0
 66
   257
 43
1.0
 76
     1
 77
     6
 78
     2
 67
     7
 79
     3
170
     0
171
     0
290
     0
174
     0
 93
        1
 44
0.0
173
     0
291
     0
 45
0.0
1001
ACAD
1000
AcDbSavedByObjectVersion
1070
     0
  0
VISUALSTYLE
  5
30
102
{ACAD_REACTORS
330
2A
102
}
330
2A
100
AcDbVisualStyle
  2
3dWireframe
 70
     5
 71
     0
 72
     2
 73
     0
 90
        0
 40
-0.6
 41
-30.0
 62
     5
 63
     7
421
 16777215
 74
     1
 91
        4
 64
     7
 65
   257
 75
     1
175
     1
 42
1.0
 92
        0
 66
   257
 43
1.0
 76
     1
 77
     6
 78
     2
 67
     7
 79
     5
170
     0
171
     0
290
     0
174
     0
 93
        1
 44
0.0
173
     0
291
     0
 45
0.0
1001
ACAD
1000
AcDbSavedByObjectVersion
1070
     0
  0
VISUALSTYLE
  5
32
102
{ACAD_REACTORS
330
2A
102
}
330
2A
100
AcDbVisualStyle
  2
Basic
 70
     7
 71
     1
 72
     0
 73
     1
 90
        0
 40
-0.6
 41
-30.0
 62
     5
 63
     7
421
 16777215
 74
     0
 91
        4
 64
     7
 65
   257
 75
     1
175
     1
 42
1.0
 92
        8
 66
     7
 43
1.0
 76
     1
 77
     6
 78
     2
 67
     7
 79
     5
170
     0
171
     0
290
     0
174
     0
 93
        1
 44
0.0
173
     0
291
     1
 45
0.0
1001
ACAD
1000
AcDbSavedByObjectVersion
1070
     0
  0
VISUALSTYLE
  5
36
102
{ACAD_REACTORS
330
2A
102
}
330
2A
100
AcDbVisualStyle
  2
Brighten
 70
    12
 71
     2
 72
     2
 73
     0
 90
        0
 40
-0.6
 41
-30.0
 62
     5
 63
     7
421
 16777215
 74
     1
 91
        4
 64
     7
 65
   257
 75
     1
175
     1
 42
1.0
 92
        8
 66
     7
 43
1.0
 76
     1
 77
     6
 78
     2
 67
     7
 79
     5
170
     0
171
     0
290
     0
174
     0
 93
        1
 44
50.0
173
     0
291
     1
 45
0.0
1001
ACAD
1000
AcDbSavedByObjectVersion
1070
     0
  0
VISUALSTYLE
  5
3A
102
{ACAD_REACTORS
330
2A
102
}
330
2A
100
AcDbVisualStyle
  2
ColorChange
 70
    16
 71
     2
 72
     2
 73
     3
 90
        0
 40
-0.6
 41
-30.0
 62
     5
 63
     8
421
  8421504
 74
     1
 91
        4
 64
     7
 65
   257
 75
     1
175
     1
 42
1.0
 92
        8
 66
     8
424
  8421504
 43
1.0
 76
     1
 77
     6
 78
     2
 67
     7
 79
     5
170
     0
171
     0
290
     0
174
     0
 93
        1
 44
0.0
173
     0
291
     1
 45
0.0
1001
ACAD
1000
AcDbSavedByObjectVersion
1070
     0
  0
VISUALSTYLE
  5
34
102
{ACAD_REACTORS
330
2A
102
}
330
2A
100
AcDbVisualStyle
  2
Conceptual
 70
     9
 71
     3
 72
     2
 73
     0
 90
        0
 40
-0.6
 41
-30.0
 62
     5
 63
     7
421
 16777215
 74
     2
 91
        2
 64
     7
 65
   257
 75
     1
175
     1
 42
40.0
 92
        8
 66
     7
 43
1.0
 76
     1
 77
     6
 78
     2
 67
     7
 79
     3
170
     0
171
     0
290
     0
174
     0
 93
        1
 44
0.0
173
     0
291
     0
 45
0.0
1001
ACAD
1000
AcDbSavedByObjectVersion
1070
     0
  0
VISUALSTYLE
  5
35
102
{ACAD_REACTORS
330
2A
102
}
330
2A
100
AcDbVisualStyle
  2
Dim
 70
    11
 71
     2
 72
     2
 73
     0
 90
        0
 40
-0.6
 41
-30.0
 62
     5
 63
     7
421
 16777215
 74
     1
 91
        4
 64
     7
 65
   257
 75
     1
175
     1
 42
1.0
 92
        8
 66
     7
 43
1.0
 76
     1
 77
     6
 78
     2
 67
     7
 79
     5
170
     0
171
     0
290
     0
174
     0
 93
        1
 44
-50.0
173
     0
291
     1
 45
0.0
1001
ACAD
1000
AcDbSavedByObjectVersion
1070
     0
  0
VISUALSTYLE
  5
39
102
{ACAD_REACTORS
330
2A
102
}
330
2A
100
AcDbVisualStyle
  2
Facepattern
 70
    15
 71
     2
 72
     2
 73
     0
 90
        0
 40
-0.6
 41
-30.0
 62
     5
 63
     7
421
 16777215
 74
     1
 91
        4
 64
     7
 65
   257
 75
     1
175
     1
 42
1.0
 92
        8
 66
     7
 43
1.0
 76
     1
 77
     6
 78
     2
 67
     7
 79
     5
170
     0
171
     0
290
     0
174
     0
 93
        1
 44
0.0
173
     0
291
     1
 45
0.0
1001
ACAD
1000
AcDbSavedByObjectVersion
1070
     0
  0
VISUALSTYLE
  5
2B
102
{ACAD_REACTORS
330
2A
102
}
330
2A
100
AcDbVisualStyle
  2
Flat
 70
     0
 71
     2
 72
     1
 73
     1
 90
        2
 40
-0.6
 41
30.0
 62
     5
 63
     7
421
 16777215
 74
     0
 91
        4
 64
     7
 65
   257
 75
     1
175
     1
 42
1.0
 92
        8
 66
     7
 43
1.0
 76
     1
 77
     6
 78
     2
 67
     7
 79
     5
170
     0
171
     0
290
     0
174
     0
 93
       13
 44
0.0
173
     0
291
     1
 45
0.0
1001
ACAD
1000
AcDbSavedByObjectVersion
1070
     0
  0
VISUALSTYLE
  5
2C
102
{ACAD_REACTORS
330
2A
102
}
330
2A
100
AcDbVisualStyle
  2
FlatWithEdges
 70
     1
 71
     2
 72
     1
 73
     1
 90
        2
 40
-0.6
 41
30.0
 62
     5
 63
     7
421
 16777215
 74
     1
 91
        4
 64
     7
 65
   257
 75
     1
175
     1
 42
1.0
 92
        0
 66
   257
 43
1.0
 76
     1
 77
     6
 78
     2
 67
     7
 79
     5
170
     0
171
     0
290
     0
174
     0
 93
       13
 44
0.0
173
     0
291
     1
 45
0.0
1001
ACAD
1000
AcDbSavedByObjectVersion
1070
     0
  0
VISUALSTYLE
  5
2D
102
{ACAD_REACTORS
330
2A
102
}
330
2A
100
AcDbVisualStyle
  2
Gouraud
 70
     2
 71
     2
 72
     2
 73
     1
 90
        2
 40
-0.6
 41
30.0
 62
     5
 63
     7
421
 16777215
 74
     0
 91
        4
 64
     7
 65
   257
 75
     1
175
     1
 42
1.0
 92
        0
 66
     7
 43
1.0
 76
     1
 77
     6
 78
     2
 67
     7
 79
     5
170
     0
171
     0
290
     0
174
     0
 93
       13
 44
0.0
173
     0
291
     1
 45
0.0
1001
ACAD
1000
AcDbSavedByObjectVersion
1070
     0
  0
VISUALSTYLE
  5
2E
102
{ACAD_REACTORS
330
2A
102
}
330
2A
100
AcDbVisualStyle
  2
GouraudWithEdges
 70
     3
 71
     2
 72
     2
 73
     1
 90
        2
 40
-0.6
 41
30.0
 62
     5
 63
     7
421
 16777215
 74
     1
 91
        4
 64
     7
 65
   257
 75
     1
175
     1
 42
1.0
 92
        0
 66
   257
 43
1.0
 76
     1
 77
     6
 78
     2
 67
     7
 79
     5
170
     0
171
     0
290
     0
174
     0
 93
       13
 44
0.0
173
     0
291
     1
 45
0.0
1001
ACAD
1000
AcDbSavedByObjectVersion
1070
     0
  0
VISUALSTYLE
  5
38
102
{ACAD_REACTORS
330
2A
102
}
330
2A
100
AcDbVisualStyle
  2
Linepattern
 70
    14
 71
     2
 72
     2
 73
     0
 90
        0
 40
-0.6
 41
-30.0
 62
     5
 63
     7
421
 16777215
 74
     1
 91
        4
 64
     7
 65
   257
 75
     7
175
     7
 42
1.0
 92
        8
 66
     7
 43
1.0
 76
     1
 77
     6
 78
     2
 67
     7
 79
     5
170
     0
171
     0
290
     0
174
     0
 93
        1
 44
0.0
173
     0
291
     1
 45
0.0
1001
ACAD
1000
AcDbSavedByObjectVersion
1070
     0
  0
VISUALSTYLE
  5
33
102
{ACAD_REACTORS
330
2A
102
}
330
2A
100
AcDbVisualStyle
  2
Realistic
 70
     8
 71
     2
 72
     2
 73
     0
 90
        0
 40
-0.6
 41
-30.0
 62
     5
 63
     7
421
 16777215
 74
     1
 91
        0
 64
     7
 65
   257
 75
     1
175
     1
 42
1.0
 92
        8
 66
     8
424
  7895160
 43
1.0
 76
     1
 77
     6
 78
     2
 67
     7
 79
     5
170
     0
171
     0
290
     0
174
     0
 93
       13
 44
0.0
173
     0
291
     0
 45
0.0
1001
ACAD
1000
AcDbSavedByObjectVersion
1070
     0
  0
VISUALSTYLE
  5
37
102
{ACAD_REACTORS
330
2A
102
}
330
2A
100
AcDbVisualStyle
  2
Thicken
 70
    13
 71
     2
 72
     2
 73
     0
 90
        0
 40
-0.6
 41
-30.0
 62
     5
 63
     7
421
 16777215
 74
     1
 91
        4
 64
     7
 65
   257
 75
     1
175
     1
 42
1.0
 92
       12
 66
     7
 43
1.0
 76
     1
 77
     6
 78
     2
 67
     7
 79
     5
170
     0
171
     0
290
     0
174
     0
 93
        1
 44
0.0
173
     0
291
     1
 45
0.0
1001
ACAD
1000
AcDbSavedByObjectVersion
1070
     0
  0
ENDSEC
  0
EOF
